Gg Allin - Anal Cunt Chords & Tabs

 

Anal Cunt Chords & Tabs

Gg Allin Chords & Tabs

Version: 1 Type: Tab 0 ratings
1 star 2 stars 3 stars 4 stars 5 stars
comments

Anal Cunt Tab

ANAL CUNT, by GG Allin & the Murder Junkies.
From the album "Brutality & Bloodshed For All"
Tabbed by Jake Strange (scumfuc)
Email:  jakestrange@chaosmagic.com

Main Riff:
e|-------------------------------------------------------------------------|
B|-------------------------------------------------------------------------|
G|-------------------------------------------------------------------------|
D|--2-----2--------------------2-----2-------------------------------------|
A|--2-----2--2222222222222222--2-----2--2222222222222222222----2p0---------|
E|--0--3--0--0000000000000000--0--3--0--0000000000000000000---------3p0----|
             pm-------------+           pm----------------+
Play the above part 2x then go into the next part.
[ Tab from: http://www.guitartabs.cc/tabs/g/gg_allin/anal_cunt_tab.html ]
e|---------------------------------|
B|---------------------------------|
G|-----------2---------------------|
D|--2--------2---------5--7--777---|
A|--2--------0---------5--7--777---|
E|--0--3---------------3--5--555---|

Then play a simple "G" & "A" right before going into chorus.

Chorus:
e|--------------------------------------||----------------------------------|
B|--------------------------------------||----------------------------------|
G|--555555555555----------7--5--7--5--7-||--55555555------------------------|
D|--555555555555--555555--7--5--7--5--7-||--55555555--55555555--7777777777--|
A|--333333333333--555555--5--3--5--3--5-||--33333333--55555555--7777777777--|
E|----------------333333----------------||------------33333333--5555555555--|

....then repeat 1st measure of chorus & substitute the 2nd measure for this:
e|--------------------------------------------|
B|--------------------------------------------|
G|--5555555555-------------444444444444444(11)|
D|--5555555555--555555555--444444444444444----|
A|--3333333333--555555555--222222222222222----|
E|--------------333333333---------------------|

...
Comments