Gg Allin - Abuse Me I Want To Die Chords & Tabs

 

Abuse Me I Want To Die Chords & Tabs

Gg Allin Chords & Tabs

Version: 1 Type: Tab 0 ratings
1 star 2 stars 3 stars 4 stars 5 stars
comments

Abuse Me I Want To Die Tab

ABUSE ME (I WANT TO DIE), by GG Allin & the Scumfucs.
Tabbed by Jake Strange (aka: scumfuc)
Email:  jakestrange@chaosmagic.com
This one is really easy,too.
Note that I am only tabbing the chords in the orders
they are used & NOT how many times they are strummed.

Main Part:
e|----------------------------------|
B|----------------------------------|
G|--------2-------5------4----------|
D|--2-----2-------5------4----------|
A|--2-----0-------3------2----------|
E|--0--------------------------3----|

[ Tab from: http://www.guitartabs.cc/tabs/g/gg_allin/abuse_me_i_want_to_die_tab.html ]
Other part of the Main Riff:
e|---------------------------------------|
B|---------------------------------------|
G|--------------------------5------4-----|
D|--2-------5-------4-------5------4-----|
A|--2-------5-------4-------3------2-----|
E|--0-------3-------2--------------------|

Then, the Chorus, if you'd call it that:
e|----------------------------------------------------------|
B|----------------------------------------------------------|
G|--7-----2----------------------7---------------9--9--9----|
D|--7-----2-----2------2---------7------7--------9--9--9----|
A|--5-----0-----2------2---------5------7--------7--7--7----|
E|--------------0--3---0--3-------------5-------------------|

& that's it!
Comments