Get Up Kids - Wouldnt Believe It Chords & Tabs

 

Wouldnt Believe It Chords & Tabs

Get Up Kids Chords & Tabs

Version: 1 Type: Tab 0 ratings
1 star 2 stars 3 stars 4 stars 5 stars
comments

Wouldnt Believe It Tab

-----------------------------------------------------------
	     Wouldn't Believe It - Get Up Kids
                      Album: Guilt Show
-----------------------------------------------------------
Tabbed by: Steve Hwang
Email: stevehwang @ gmail.com

Tuning: standard

Best to listen to the song while you play to get the rhythm. 

Intro:
e|---------------------------------------------------------------------------|
B|--------------------------2------------------------------------------------|
G|---------------------------------------------------------------------------|
D|---2-4--4-2-4-2-4b-4-2-----------------------------------------------------|
A|-4-------------------------------------------------------------------------|
E|---------------------------------------------------------------------------|

Intro (cont.)/
Verse:
e|---------------------------------------------------------------------------|
B|---------------------------------------------------------------------------|
G|-----------8--8-8-8--------------------------------------------------------|
D|-4--4-4-4--8--8-8-8--4-4-4-4-4-4-4s3-3-------------------------------------|
A|-4--4-4-4--6--6-6-6--4-4-4-4-4-4-4s3-3-------------------------------------|
E|-2--2-2-2------------2-2-2-2-2-2-2s1-1-----(repeat)------------------------|

Rows of houses on forever
what the neighbors never know
when the hammer fell 
the kettle whistle yells

e|------------------------------------------------------------------|
B|------------------------------------------------------------------|
G|---------4-4--4---------------------------------------------------|
D|-6-6--6--4-4--4--4-4--4--4-4--4-----------------------------------|
A|-6-6--6--2-2--2--4-4--4--4-4--4-----------------------------------|
E|-4-4--4----------2-2--2--2-2--2-----------------------------------|

all good sinners go to hell 

e|------------------------------------------------------------------------|
B|------------------------------------------------------------------------|
G|------------------------------------------------------------------------|
D|-6--6-6-6--2--2-2-2--4-4-4-4-4-4-4-4------------------------------------|
A|-6--6-6-6--2--2-2-2--4-4-4-4-4-4-4-4------------------------------------|
E|-4--4-4-4--0--0-0-0--2-2-2-2-2-2-2-2------------------------------------|

serpent turns onto itself
[ Tab from: http://www.guitartabs.cc/tabs/g/get_up_kids/wouldnt_believe_it_tab.html ]
Chorus:
e|---------------------------------------------------------------------------|
B|---------------------------------------------------------------------------|
G|---------------------------------------------------------------------------|
D|-9--9-9-9--9--9-9-9--4--4-4-4--4--4-4-4------------------------------------|
A|-9--9-9-9--9--9-9-9--4--4-4-4--4--4-4-4------------------------------------|
E|-7--7-7-7--7--7-7-7--2--2-2-2--2--2-2-2------------------------------------|

Did it occur to you too?
What was the worst you could do?

e|---------------------------------------------------------------------------|
B|---------------------------------------------------------------------------|
G|---------------------------------------------------------------------------|
D|-8--8-8-8--8--8-8-8--6--6-6-6--6--6-6-6------------------------------------|
A|-8--8-8-8--8--8-8-8--6--6-6-6--6--6-6-6------------------------------------|
E|-6--6-6-6--6--6-6-6--4--4-4-4--4--4-4-4------------------------------------|

You wouldn't believe it,
Wouldn't believe it 
I don't believe it too.

(repeat chords)
It never occured to you too?
You wouldn't believe it,
Wouldn't believe it 
I don't believe it too.

Verse 2:

Can you really keep a secret
cross your heart and hope to die?
Maybe an evil one
the mind is all but gone

trespass fits you like a charm
a scarlet letter on your arm

Repeat Chorus

Bridge: 

e|---------------------------------------------------------------------------|
B|---------------------------------------------------------------------------|
G|---------------------------------------------------------------------------|
D|-4--4-4-4--4--4-4-4--8--8-8-8--8--8-8-8------------------------------------|
A|-4--4-4-4--4--4-4-4--8--8-8-8--8--8-8-8------------------------------------|
E|-2--2-2-2--2--2-2-2--6--6-6-6--6--6-6-6------------------------------------|
Home's open for the taking

e|---------------------------------------------------------------------------|
B|---------------------------------------------------------------------------|
G|---------------------------------------------------------------------------|
D|-4--4-4-4--4--4-4-4--6-6-6-6--6-6-6-6--------------------------------------|
A|-4--4-4-4--4--4-4-4--6-6-6-6--6-6-6-6--------------------------------------|
E|-2--2-2-2--2--2-2-2--4-4-4-4--4-4-4-4--------------------------------------|
I'm telling you the truth

Strange choices you've been making
They will be coming back to you

Repeat Chorus 

Ending:
e|---------------------------------------------------------------------------|
B|---------------------------------------------------------------------------|
G|---------------------------------------------------------------------------|
D|-4--4-4-4------------------------------------------------------------------|
A|-4--4-4-4--repeat-to-end---------------------------------------------------|
E|-2--2-2-2------------------------------------------------------------------|

Answer me
will you be received?
Comments