Get Up Kids - The Company Dime Chords & Tabs

 

The Company Dime Chords & Tabs

Get Up Kids Chords & Tabs

Version: 1 Type: Tab 0 ratings
1 star 2 stars 3 stars 4 stars 5 stars
comments

The Company Dime Tab

   
------------------------------------------------------------
                            THE COMPANY DIME - Get Up Kids
------------------------------------------------------------

by Chris Neil
cneil82@hotmail.com

Intro:
guitars 1 & 2 (clean with tremolo):
-----2-2---
-3-3-3-3---
-2-2-2-2---
-0-0-0-0---
-----------
----------- 

guitar 1:
G(sus4)
-3-3-3-3--------------------------
-3-3-3-3--------------------------
-4-4-4-4-------7-7-7-7/9-7-----7--
-5-5-5-4h5-4----------------------
-5-5-5-5-------5-5-5-5/7-5-----5--
-3-3-3-3--------------------------

guitar 2:
-----------------------------------------------------
--------------------------------------------------0--
-7--7-7-7--7-7-7-7-7-7/9-7-----7-7-7--7-7-7-7-7-7-5--
-----------------------------------------------------
-5--5-5-5--5-5-5-5-5-5/7-5-----5-5-5--5-5-5-5-5-5-3--
-----------------------------------------------------
[ Tab from: http://www.guitartabs.cc/tabs/g/get_up_kids/the_company_dime_tab.html ]
guitar 1:
G(sus4)
-3-3-3-3---------------------------------------------
-3-3-3-3---------------------------------------------
-4-4-4-4-------7-7-7-7/9-7---7-7-7--7-7-11-11-11-11--
-5-5-5-4h5-4-----------------------------------------
-5-5-5-5-------5-5-5-5/7-5---5-5-5--5-5--9--9--9--9--
-3-3-3-3---------------------------------------------

guitar 2:
-----------------------------------------------------
-----------------------------------------------------
-7--7-7-7--7-7-7-7-7-7/9-7---7-7-7--7-7-11-11-11-11--
-----------------------------------------------------
-5--5-5-5--5-5-5-5-5-5/7-5---5-5-5--5-5--9--9--9--9--
-----------------------------------------------------

guitar 1:
G(sus4)
-3-3-3-3--------------------------
-3-3-3-3--------------------------
-4-4-4-4-------7-7-7-7/9-7-----7--
-5-5-5-4h5-4----------------------
-5-5-5-5-------5-5-5-5/7-5-----5--
-3-3-3-3--------------------------

guitar 2:
-----------------------------------------------------
--------------------------------------------------0--
-7--7-7-7--7-7-7-7-7-7/9-7-----7-7-7--7-7-7-7-7-7-5--
-----------------------------------------------------
-5--5-5-5--5-5-5-5-5-5/7-5-----5-5-5--5-5-5-5-5-5-3--
-----------------------------------------------------


guitar 1:
G(sus4)
-3-3-3-3--------------------
-3-3-3-3--------------------
-4-4-4-4-------7-7-7-7/9-7--
----------------------------
----------------------------
----------------------------
Comments