Get Up Kids - Shorty Chords & Tabs

 

Shorty Chords & Tabs

Get Up Kids Chords & Tabs

Version: 2 Type: Bass Tab 0 ratings
1 star 2 stars 3 stars 4 stars 5 stars
comments

Shorty Bass Tab

   
song: Shorty 
artist: The Get Up Kids
album: 4 minute mile
Tabbed by: John Krohn (jkrohn@scs.k12.mi.us)

Go see these guys in concert, they rock. This album is more raw and hardcore
than their second album. Somebody sent me this tab a while back, but it 
was kinda hard to follow and they never posted it online, so here's my
version.

intro, first two verses  

G ----------------------------------------
D ----------------------------------------
A 2---5---2-------2---5---00000000--------
E ------------3-------------------33333333

chorus 

G --------------------------------
D --------------------------------
A --------2222222200000000--------
E 33333333----------------33333333   X2

bridge

G ------------------
D ------------------
A 2222-5555---------
E ----------33333333
[ Tab from: http://www.guitartabs.cc/tabs/g/get_up_kids/shorty_btab_ver_2.html ]
post bridge 

G -----------------------------
D -----------------------------
A -----------------------------
E 22222222333333332222222233333

third verse  

G --------------------------------------------------------
D --------------------------------------------------------
A 2---5---2---5---2---5---00000000--------00000000--------
E --------------------------------33333333--------33333333

outro

G --------------------------------
D --------------------------------
A 5555555577777777 ---------------
E ----------------7777777733333333   X4

end

G ---------------------
D ---------------------
A 5---7---------------5
E --------7---33333333-


stick clicks
intro 
first verse
chorus 
second verse
bridge
post bridge
third verse
bridge
post bridge
vocals & guitar only
outro
end 
Comments