Get Up Kids - Red Letter Day Chords & Tabs

 

Red Letter Day Chords & Tabs

Get Up Kids Chords & Tabs

Version: 2 Type: Tab 0 ratings
1 star 2 stars 3 stars 4 stars 5 stars
comments

Red Letter Day Tab

------------------------------------------------------------
                          RED LETTER DAY - Get Up Kids
------------------------------------------------------------

by Chris Neil
cneil82@hotmail.com

Intro
------------------------------ 
------------------------------ 
------------------------------ 
-6-6-7-6---6---6-6-6-7-6---6-- 
-7-7-7-7-7-7-7-7-7-7-7-7-7-7-- 
-0-0-0-0-0-0-0-0-0-0-0-0-0-0-- 

("You've got some nerve i'll never knw..."): 

-0--4----0--4-- 
-0--3----2--5-- 
-1--2----2--6-- 
-2--0----2--6-- 
-2-------0--4-- 
-0------------- 

("I see it all much clearer now..."): 
-0-------------4-------------0------ 
-0-------------3-------------2------
-1-------------2-------------2--6-8- 
-2-------------0-------------2------
-2---------------------------0--4-6-
-0----------------------------------

("It's over..."): 
-4--2-0--4---4---------2-- 
-5--4-0--4---5---------4-- 
-6--4-1--4---6---------4-- 
-6--4-2--6---6---------4-- 
-4--2-2--6---4---------2-- 
------0--4---------------- 

("We're loyal like brothers..."): 
------------------------------------------- 
------------------------------------------- 
-9-8-9-8--9-8--4-4---9-8--9-8--9-8-9-9/11-- 
------------------------------------------- 
-7-6-7-6--7-6--2-2---7-6--7-6--7-6-7-7/-9-- 
------------------------------------------- 

("I trusted misleading..."): 
-0-----------2----------4--------0-- 
-2-----------4----------5--------0-- 
-2-----------4----------6--------1-- 
-2-----------4----------6--------2-- 
-0-----------2----------4--------2-- 
---------------------------------0-- 

("How could you do this to me?"): 
-0--------2--------0--------------------- 
-2--------4--------2--------------------- 
-2--------4--------2--------------------- 
-2--------4--------2----------4---4-4-4-- 
-0--------2--------0----------4---4-4-4-- 
------------------------------2---0-2-0-- 

("Red letter day..."): 
-------------------------- 
-------------------------- 
-9--13---9--4h6-4--4h6-4-- 
-------------------------- 
-7--11---7---------------- 
--------------------------

("I see it all, much clearer since..."):  
--------------------------------------------------------- 
--------------------------------------------------------- 
-16---16h18p16---13----13h14p13---9---4h6-4--4h6-4--4h6/8 
--------------------------------------------------------- 
-14--------------11---------------7---------------------- 
---------------------------------------------------------
[ Tab from: http://www.guitartabs.cc/tabs/g/get_up_kids/red_letter_day_tab_ver_2.html ]
("It's over."):
-4-4-4-4-----2-2-2-2-- 
-5-5-5-5-----4-4-4-4-- 
-6-6-6-6-----4-4-4-4-- 
-6-6-6-6-----4-4-4-4-- 
-4-4-4-4-----2-2-2-2-- 
---------------------- 

Second Chorus ("We're loyal like brothers..."): 
------------------------------------------- 
------------------------------------------- 
-9-8-9-8--9-8--4-4---9-8--9-8--9-8-9-9/11-- 
------------------------------------------- 
-7-6-7-6--7-6--2-2---7-6--7-6--7-6-7-7/-9-- 
------------------------------------------- 

("I trusted misleading..."): 
-0-----------2----------4--------0-- 
-2-----------4----------5--------0-- 
-2-----------4----------6--------1-- 
-2-----------4----------6--------2-- 
-0-----------2----------4--------2-- 
---------------------------------0-- 

("How could you do this to me?"):  
-0--------2--------0-----------2--------0---2-- 
-2--------4--------2-----------4--------2---4-- 
-2--------4--------2-----------4--------2---4-- 
-2--------4--------2-----------4--------2---4-- 
-0--------2--------0-----------2--------0---2-- 
----------------------------------------------- 

("and if its a lie, I don't want to be..."): 
-0---4----4---2-----0-- 
-0---4----5---4-----2-- 
-1---4----6---4-----2-- 
-2---6----6---4-----2-- 
-2---6----4---2-----0-- 
-0---4----------------- 

("if you wanna try, try and forget it..."): 
-0---------------------4----2--4-------------------------- 
-0---------------------5----4--5-------------------------- 
-1---------------------6----4--6-------------------------- 
-2----------4---6--7---6----4--6-----4--4--4--4--4--4--4-6 
-2----------4---6--7---4----2--4-----4--4--4--4--4--4--4-6 
-0----------2---4--5-----------------2--0--2--0--2--0--2-4

("We're loyal like brothers..."): 
-0-----------2----------4--------0-- 
-2-----------4----------5--------0-- 
-2-----------4----------6--------1-- 
-2-----------4----------6--------2-- 
-0-----------2----------4--------2-- 
---------------------------------0-- 

("Were you the one for..."): 
-0-----------2----------4--------0-- 
-2-----------4----------5--------0-- 
-2-----------4----------6--------1-- 
-2-----------4----------6--------2-- 
-0-----------2----------4--------2-- 
---------------------------------0-- 

("I trusted misleading..."): 
-0--------2--------4-----------0-- 
-2--------4--------5-----------0-- 
-2--------4--------6-----------1-- 
-2--------4--------6-----------2-- 
-0--------2--------4-----------2-- 
-------------------------------0-- 

("How could you do this..."): 
-0--------2-----------0---2---0-----2------0-- 
-2--------4-----------2---4---2-----4------0-- 
-2--------4-----------2---4---2-----4------1-- 
-2--------4-----------2---4---2-----4------2-- 
-0--------2-----------0---2---0-----2------2-- 
-------------------------------------------0-- 
Comments