Get Up Kids - Out Of Reach Chords & Tabs

 

Out Of Reach Chords & Tabs

Get Up Kids Chords & Tabs

Version: 4 Type: Tab 0 ratings
1 star 2 stars 3 stars 4 stars 5 stars
comments

Out Of Reach Tab

Artist: The Get Up Kids
Song: Out Of Reach
Tuning: EADGBe (Normal)
Tabber: Tre and Todd
E-mail: strokingthevines@hotmail.com; xkom12@hotmail.com

This is my first tab.  My brother and I saw all these tabs for this song
and they didn't sound right to us so we tabbed it ourselves.
[ Tab from: http://www.guitartabs.cc/tabs/g/get_up_kids/out_of_reach_tab_ver_4.html ]
(Play this for intro, verse 1, and verse 2.)
e|-------6-------------------------------------6----------
B|-------7-------------------------------------7----------
G|-4-----8-----1--------4----------------------8-----1----
D|-4--4--8--6--2--4--6--4--------2--------4----8--6--2--4-
A|-2--4--6--6--2--4--6--2---------2--------4---6--6--2--4-
E|----2--6--4-----2--4-----2-1-0----0-2-2---2--6--4-----2-

"There's room to believe..."
e|----------------------6-------
B|----------------------7-------
G|-4--1--------4--------8--1----
D|-4--2--6--4--4--4--6--8--2--4-
A|-2--2--6--4--2--4--6--6--2--4-
E|-------4--2-----2--4--6-----2-

I dunno from there because the piano threw me off.  Maybe you'll find another tab
that has it, but then you go back to the "there's room to believe" portion of the
song. You get the idea.  I didn't put the struming pattern cause I got lazy. 
You'll figure it out, if not... don't play guitar.
Comments