Get Up Kids - Out Of Reach Chords & Tabs

 

Out Of Reach Chords & Tabs

Get Up Kids Chords & Tabs

Version: 3 Type: Tab 0 ratings
1 star 2 stars 3 stars 4 stars 5 stars
comments

Out Of Reach Tab

-------------------------------------------------------------------------------
                       |Out of Reach  The Get Up Kids|   By: Purm
-------------------------------------------------------------------------------

 e|---------------------------------------------------------------------------|
 B|---------------------------------------------------------------------------|
 G|-4-----8--------------4-----------------------/8-8-------------------------|
 D|-4--4--8--6--2--4--6--4------2-2-2-----4-4-4--/8----6--2--4--*repeat*------|
 A|-2--4--6--6--2--4--6--2-2----2-2---2---4-4---4/6----6--2--4----------------|
 E|----2-----4--0--2--4-----3-2-0-0-----0-2-2----------4--0--2----------------|
[ Tab from: http://www.guitartabs.cc/tabs/g/get_up_kids/out_of_reach_tab_ver_3.html ]
 e|---------------------------------------------------------------------------|
 B|---------------------------------------------------------------------------|
 G|-4-----------4--6-----8----------------------------------------------------|
 D|-4-2-6--4--4--6--6--8--2--*repeat last time*-----------------------------|
 A|-2-2-6--4--2--4--6--6--2-------------------------------------------------|
 E|----0-4--2--------4-----0-------------------------------------------------|

------------------------------------------------------------------------------|

Out of Reach 

Long way from home,
lost by an echo I'd never have known.
I've got pictures to prove I was there,
but you don't care.

Here's me overseas,
across the pond by the Dover peaks.
I've smuggled myself into new nationalities,
you think you'd be proud of me.

There's room to believe,
out of sight, out of mind, out of reach.
Start over is no way to begin.
Comments