Get Up Kids - Out Of Reach Chords & Tabs

 

Out Of Reach Chords & Tabs

Get Up Kids Chords & Tabs

Version: 1 Type: Tab 0 ratings
1 star 2 stars 3 stars 4 stars 5 stars
comments

Out Of Reach Tab

Song:Out Of Reach	
Band:Get Up Kids
Tabbed By: Eric M. (rufioyc@hotmail.com)

e|----------------------------------------------------------------------
B|--------------------------------------( ) not always played-----------
G|----------------------------------------------------------------------
D|-9-9-11-11-13-13-6-6-9-9-11-11-13-13-9-9----(2)(2)-(2)---(4)(4)-(4)---
A|-9-9-11-11-13-13-6-6-9-9-11-11-13-13-9-9----(2)(2)---(2)-(4)(4)---(4)-
E|-7-7-9--9--11-11-4-4-7-7-9--9--11-11-7-7-2-1-0--0---------2--2--------
[ Tab from: http://www.guitartabs.cc/tabs/g/get_up_kids/out_of_reach_tab.html ]
e|---------------------------------
B|---------------------------------
G|-8---8---------------------------
D|-8---8-6-6-9-9-9-9-11-11-11-11---
A|-6(6)6-6-6-9-9-9-9-11-11-11-11---
E|-------4-4-7-7-7-7-9--9--9--9----

						"OR"
	
e|----------------------------------------------------------------------------------------
B|--------------------------------------( ) not always played-----------------------------
G|-4-4-6-6-8-8-----4-4-6-6-8-8-4-4------------------------------8---8-----4-4-4-4-6-6-6-6-
D|-4-4-6-6-8-8-6-6-4-4-6-6-8-8-4-4----(2)(2)-(2)---(4)(4)-(4)---8---8-6-6-4-4-4-4-6-6-6-6-
A|-2-2-4-4-6-6-6-6-2-2-4-4-6-6-2-2----(2)(2)---(2)-(4)(4)---(4)-6(6)6-6-6-2-2-2-2-4-4-4-4-
E|-------------4-4-----------------2-1-0--0---------2--2--------------4-4-----------------

			This just repeats itself throughout the whole song.
Comments