Get Up Kids - On A Wire Chords & Tabs

 

On A Wire Chords & Tabs

Get Up Kids Chords & Tabs

Version: 1 Type: Bass Tab 0 ratings
1 star 2 stars 3 stars 4 stars 5 stars
comments

On A Wire Bass Tab

Tabbed by Eric Eysermans (undercitylights@hotmail.com)

Easy as all get out.  Yeah.  You got it.

It's about the same thing for 5 minutes.

Standard tuning

() = ghost notes (there's a lot more scattered in there, but i only put the most important)

Verse

G|-----------------------------------------------|
D|-----------------------------------------------|
A|-----------4-2--2-2--2---5-5-5--5----7--7-7--7-|
E|-0-2---2---------------------------------------|

Chorus

G|-----------------------------------------------|
D|-----------------------------------------------|
A|-5-5-5-5-5-5-5-5-5-5-5-5-5-5-5-5---------------|
E|-----------------------------------------------|
[ Tab from: http://www.guitartabs.cc/tabs/g/get_up_kids/on_a_wire_btab.html ]
G|-----------------------------------------------|
D|-----------------------------------------------|
A|-----------4-2--2-2--2---5-5-5--5----7--7-7--7-|
E|-0-2---2---------------------------------------|

Outro

G|--------------------------------------------------------|
D|--------------------------------(7)-------------(9-9-9)-|
A|-----------4-2--2-2--2---5-5-5--5-5----7--7-7--7--------|
E|-0-2---2------------------------------------------------|

G|--------------------------------------------------------|
D|------------------------------------------------(9-9-9)-|
A|-7-9---9---4-2--2-2--2---5-5-5--5-5----7--7-7--7--------|
E|--------------------------------------------------------|
Comments