Get Up Kids - Most Depressing Song Chords & Tabs

 

Most Depressing Song Chords & Tabs

Get Up Kids Chords & Tabs

Version: 2 Type: Tab 0 ratings
1 star 2 stars 3 stars 4 stars 5 stars
comments

Most Depressing Song Tab

-----------------------------------------------------------------------
	  The Most Depressing Song- The Get Up Kids
-----------------------------------------------------------------------

By:Joe Stulpin
[ Tab from: http://www.guitartabs.cc/tabs/g/get_up_kids/most_depressing_song_tab_ver_2.html ]
e|----------------------------------------------------------------------------|
B|----------------------------------------------------------------------------|
G|---4-------8-------------------4--------------------------6/8--8------------|
D|---4---4---8---6---2---4---6---4-----------2--------4-----6/8-------6--2--4-|
A|---2---4---6---6---2---4---6---2-------------2--------4---4/6-------6--2--4-|
E|-------2-------4---0---2---4------2-1-0--0------0-2-----2-----------4--0--2-|


Just listen to the song for the strumming... Its an easy song.
Comments