Get Up Kids - Mass Pike Chords & Tabs

 

Mass Pike Chords & Tabs

Get Up Kids Chords & Tabs

Version: 1 Type: Tab 0 ratings
1 star 2 stars 3 stars 4 stars 5 stars
comments

Mass Pike Tab

    song:mass pike
    band:the get up kids
    tabber: jesse adams
    email:guitarwizzard24@juno.com
   
    

    this is my first tab so let me know what ya think rate it correct it
    help me out.i've only heard the song a few times but this is my take 
    on it and i couldn't find any tabs for it so i sat down and tabbed it
    i'm not too sure about the chords but i tabbed the keyboard intro and
    i know it's right.

[ Tab from: http://www.guitartabs.cc/tabs/g/get_up_kids/mass_pike_tab.html ]
    intro (played on keyboard)
   e|-----0-------------------------|
   b|-------3-----2-3-----3-2-------|
   g|---2---------------------4-2-0-|
   d|-4---------2-------4-----------|
   a|---------0 ------2-------------|
   E|-------------------------------|


    verse( i didn't tab out the timing but just listen to the song and figure it out)
           
    |---------|
    |---------|
    |-7-5-----|
    |-7-5-7-5-|
    |-5-3-7-5-|
    |-----5-3-|
     pm......

    chorus( once again figure the timing out yourself it makes it more fun if ya gotta figure sumthinout
    |---------|
    |---------|
    |-7---5---|
    |-7-5-5-7-|
    |-5-5-3-7-|
    |---3---5-|

  well that's it.....enjoy!
Comments