Get Up Kids - Like A Man Possessed Chords & Tabs

 

Like A Man Possessed Chords & Tabs

Get Up Kids Chords & Tabs

Version: 1 Type: Chords 0 ratings
1 star 2 stars 3 stars 4 stars 5 stars
comments

Like A Man Possessed Chords

   
This sounds okay to me, but i havent been playing guitar very long


-------------------------------------------------------------------------------
			     LIKE A MAN POSESSED - The Get Up Kids
-------------------------------------------------------------------------------

Tuning:Standard Tuning. Capo on 2.

All Chords relative to Capo

Intro:

   Em            Am              Cmaj7
e|-0--------0----------0------------------------|
B|-0--------1---3/5----0-0----------------------|
G|-0--2/4---2----------0---2--------------------|
D|-2--------2----------2------5-4-4/5--4--------|  Play 2x
A|-2--------0----------3------------------------|
E|-0--------0----------0------------------------|

 
Then play chords

[Verse]
[ Tab from: http://www.guitartabs.cc/tabs/g/get_up_kids/like_a_man_possessed_crd.html ]
Em         Am           C
I go on forever
Em                           Am            C
 Older burns are overturned
Em                           Am          C
 My life for worse or better
Em                           Am
 I'm just craving for a cure

[Chorus] 

C          Em    Am
 Like a man possessed
Em       C
 A requiem 
Db? (021002) *plucked
 We're singing

[Repeat Intro 2x] 

[2nd Verse, same as the first]

 Hide the misdemeanors
 Never lead an open life
 My hands were never cleaner
 Not a trace for you to find

 [Chorus]
 
Em                  Am
 Say it, does it show?
C                                  Em
 Is this test in any other time?
Em                 Am
 I know, but I don't
C                                   Em
 I'm blind in every other eye
Em                           Am
 Cold hands, colder smoke
C                             Em
 We sleep anywhere we lie
Em                           Am
 You're lying if you don't
C              Em
 I'll try, I'll try

Am       Db?
 
 [Chorus x8]
Comments