Get Up Kids - Im A Loner Dottie A Rebel Chords & Tabs

 

Im A Loner Dottie A Rebel Chords & Tabs

Get Up Kids Chords & Tabs

Version: 1 Type: Tab 0 ratings
1 star 2 stars 3 stars 4 stars 5 stars
comments

Im A Loner Dottie A Rebel Tab

   
I'M A LONER DOTTIE, A REBEL
The Get Up Kids
STWHA
kensarcade@hotmail.com

Intro:

(snare and toms)

then:

guitar 1 (distortion on):

F--G-Am-E5---------F-G-Am-E5

---------------------------------
---------------------------------
-2-4-5-------9-----2-4-5----9\7--
-3-5-5--2----------3-5-7--2------
-3-5-7--2----7-----3-5-7--2-7\5--
-1-3-5--0----------1-3-5--0------

guitar 2 (distortion on):

---------------------------------
---------------------------------
-9-7-5-12-10-9-0---9-7-5--17-16--
---------------0-----------------
-7-5-3-10--8-7-0---7-5-3--15-14--
---------------------------------

then:

guitar 1:

F--G-Am-E5-------F-G-Am-E5

---------------------------
---------------------------
-2-4-5-------9---2-4-5-----
-3-5-5--2--------3-5-7--2--
-3-5-7--2----7---3-5-7--2--
-1-3-5--0--------1-3-5--0--

guitar 2:

------------------------------------
------------------------------------
-9-7-5-12-10-9-0-9-7-5--7-9-10-9-7--
---------------0--------------------
-7-5-3-10--8-7-0-7-5-3--5-7--8-7-5--
------------------------------------

then:

guitar 1:
                    C5                  A5

----------------------------------------------------
----------------------------------------------------
-5-----7-9-7---10-9-5-5-5-5-5-5-5-5-7-9----10-9-12--
--------------------5-5-5-5-5-5-5-5-----7-----------
-3-----5-7-5----8-7-3-3-3-3-3-3-3-3-5-7-7---8-7-10--
----------------------------------------5-----------

guitar 2:

---------------------------------------------
-13-------13-12----13-12-13-12-13-12-13------
----12----------------------------------7-9--
---------------------------------------------
-10-10----10-10-------------------------5-7--
---------------------------------------------

then:

guitar 1:
                                 C5

-------------------------------------
-------------------------------------
-5-------------------7-9-7--10-9-5---
---------------------------------5---
-3-------------------5-7-5---8-7-3---
-------------------------------------

guitar 2:

-----------------------------------------------------------
-13----13----13----13----13-12--13-12-13-12-13-12-13-12----
----12----12----12----12--------------------------------5--
--------------------------------------------------------5--
-10-10-10-10-10-10-10-10-10-10--------------------------3--
-----------------------------------------------------------

First Verse (drums and bass out; "Come tomorrow..."):

guitar 1:

                 * drums and bass in
C5----------------F5

-----------------------------------
-----------------------------------
-----------------------------------
------------------3-3-3-3-3-3-3-3--
------------------3-3-3-3-3-3-3-3--
------------------1-1-1-1-1-1-1-1--

guitar 2:

-----------------------------------
-----------------------------------
-5-5-5-5-5-5-5-5-------------------
-5-5-5-5-5-5-5-5--3-3-3-3-3-3-3-3--
-3-3-3-3-3-3-3-3--3-3-3-3-3-3-3-3--
------------------1-1-1-1-1-1-1-1--

then ("In the morning..."):

both guitars:

C5--------------------------------------------F5

-------------------------------------------------------
-------------------------------------------------------
---------5---------5-5---------5---------5-5--3-3-3-3--
-5-5-5-5-5-5-5-5-5-5-5-5-5-5-5-5-5-5-5-5-5-5--3-3-3-3--
-3-3-3-3-3-3-3-3-3-3-3-3-3-3-3-3-3-3-3-3-3-3--1-1-1-1--
-------------------------------------------------------

then ("One night..."):

both guitars:

C5--------------------------------F5

-------------------------------------
-------------------------------------
---5---5-5-5p4-0---5---5-5-5p4-0-----
-5-5-5-5-5-5-----5-5-5-5-5-5------3--
-3-3-3-3-3-------3-3-3-3-3--------3--
----------------------------------1--

First Chorus ("...go it's not impossible..."):

guitar 1:

------------------------------------------------------
------------------------------------------------------
10--9--5--7--10--9-12--5---10--9--5--5-7/9\7-0-10--9--
---------------------------------------------0--------
-8--7--3--5---8--7-10--3----8--7--3--3-5/7\5-0--8--7--
------------------------------------------------------

guitar 2:

F5--G5-A5-E5--F5-G5-A5-C5---F5-G5-A5-C5---------F5-G5

------------------------------------------------------
------------------------------------------------------
-------2------------2--5----------2--5----------------
-3--5--2--2---3--5--2--5----3--5--2--5----------3--5--
-3--5--0--2---3--5--0--3----3--5--0--3----------3--5--
-1--3-----0---1--3----------1--3----------------1--3--

Second Verse:

guitar 1 & 2 ("I'll keep my hands by my side."):

C5-------------------------(F*)

* notes played by bass

----------------------------------------------------
----------------------------------------------------
-----------------5-------5---------------5---5---5--
-5-5-5-5-5-5-5-5-5-5-5-5-5-5-5-5-5-5-5-5-5-5-5-5-5--
-3-3-3-3-3-3-3-3-3-3-3-3-3-3-3-3-3-3-3-3-3-3-3-3-3--
----------------------------------------------------

guitar 3 (distortion on):

---------------------------------------------------
---------------------------------------------------
-12-10-9------------------12-10-9------------------
---------10-5-7-5--3-2-0----------10-5-7-5--10-10--
---------------------------------------------------
---------------------------------------------------

then:

guitars 1 & 2:

C5

--------------------------------
--------------------------------
---5-5p4-----5-5p4-----5-5p4----
-5-5-5---0-5-5-5---0-5-5-5---0--
-3-3-3-----3-3-3-----3-3-3------
--------------------------------

then:

guitar 1:

C5
[ Tab from: http://www.guitartabs.cc/tabs/g/get_up_kids/im_a_loner_dottie_a_rebel_tab.html ]
------------------
------------------
-----5-5-5-5-5-5--
-5-5-5-5-5-5-5-5--
-3-3-3-3-3-3-3-3--
------------------

guitar 2:

--------------------
-----------------0--
-----5--5-4-/7p5-0--
-5-5-5-----------0--
-3-3-3-----------0--
--------------------

Bridge ("I won't come back..."):

guitar 1:
                    C5                  A5

----------------------------------------------------
----------------------------------------------------
-5-----7-9-7---10-9-5-5-5-5-5-5-5-5-7-9----10-9-12--
--------------------5-5-5-5-5-5-5-5-----7-----------
-3-----5-7-5----8-7-3-3-3-3-3-3-3-3-5-7-7---8-7-10--
----------------------------------------5-----------

guitar 2:

---------------------------------------------
-13-------13-12----13-12-13-12-13-12-13------
----12----------------------------------7-9--
---------------------------------------------
-10-10----10-10-------------------------5-7--
---------------------------------------------

then ("...try and make it right..."):

guitar 1:
                               C5

----------------------------------------------------
----------------------------------------------------
-5---------------7-9-7--10-9---5-x-x-5-x-x-5-x-x-5--
-------------------------------5-x-x-5-x-x-5-x-x-5--
-3---------------5-7-5---8-7---3-x-x-3-x-x-3-x-x-3--
----------------------------------------------------

guitar 2:

-------------------------------7---7---7---8p7---7---7---7---7----
-13----13----13----13----13-12---8---8---8-----8---8---8---8---8--
----12----12----12----12------------------------------------------
------------------------------------------------------------------
-10-10-10-10-10-10-10-10-10-10------------------------------------
------------------------------------------------------------------

then ("...night everything was right..."):

guitar 1:

F--G-Am-E5---------F-G-Am-E5

---------------------------------
---------------------------------
-2-4-5-------9-----2-4-5----9\7--
-3-5-5--2----------3-5-7--2------
-3-5-7--2----7-----3-5-7--2-7\5--
-1-3-5--0----------1-3-5--0------

guitar 2:

---------------------------------
---------------------------------
-9-7-5-12-10-9-0---9-7-5--17-16--
---------------0-----------------
-7-5-3-10--8-7-0---7-5-3--15-14--
---------------------------------

then ("...know. So, shut your eyes..."):

guitar 1:

F--------G-------Am-------E5------F-------G

---------------------------------------------
---------------------------------------------
-2-------4-------5----------------2-------4--
-3-------5-------5--------2-------3-------5--
-3-------5-------7--------2-------3-------5--
-1-------3-------5--------0-------1-------3--

guitar 2:

-7---7---8---7---10---8---7---8---8---7---8---10----
---8---8---8---8----8---8---8---8---8---8---8----8--
----------------------------------------------------
----------------------------------------------------
----------------------------------------------------
----------------------------------------------------

then (drums and bass out; "...gone...when you wake..."):

guitar 1:

----
----
-5--
-5--
-3--
----

guitar 2:

C5

--------------------------------------------------------------
--------------------------------------------------------------
-----------------------------------------------------5-5-4p0--
-5-5-5-5-5-5-5-5-5-5-5-5-5-5-5-5-5-5-5-5-5-5-5-5-5-5-5-5------
-3-3-3-3-3-3-3-3-3-3-3-3-3-3-3-3-3-3-3-3-3-3-3-3-3-3----------
--------------------------------------------------------------

then (drums and bass in; "...gone."):

guitar 1 : out

guitar 2:

C5    (F-----G---A---G-A---B----C-F---------G-A-A----B)

--------------------------------------------------------------
--------------------------------------------------------------
---5---5-5p4-0---5---5-5p4-0----5---5-5p4-0------5-4-7-5-4p0--
-5-5-5-5-5-5-5-5-5-5-5-5-5-5--5-5-5-5-5---5-------------------
-3-3-3-3-3-3---3-3-3-3-3-3----3-3-3-3-3-----------------------
--------------------------------------------------------------

guitar 2:

--------------------------------------------------
--------------------------------------------------
-5--------------------------------------------12--
-5------------------------------------------------
-3--------------------------------------------10--
--------------------------------------------------

then ("One night doesn't..."):

guitar 1:

F5--G5-F5----------G5

----------------------
----------------------
----------------------
-3--5--3-----------5--
-3--5--3-----------5--
-1--3--1-----------3--

guitar 2:

-----------------------------
-----------------------------
-------17-16-17-19-17-19-21--
-3--5------------------------
-3--5--15-14-15-17-15-17-19--
-1--3------------------------

Second Chorus ("...go it's not impossible..."):

guitar 1:

------------------------------------------------------
------------------------------------------------------
10--9--5--7--10--9-12--5---10--9--5--5-7/9\7-0-10--9--
---------------------------------------------0--------
-8--7--3--5---8--7-10--3----8--7--3--3-5/7\5-0--8--7--
------------------------------------------------------

guitar 2:

F5--G5-A5-E5--F5-G5-A5-C5---F5-G5-A5-C5---------F5-G5

------------------------------------------------------
------------------------------------------------------
-------2------------2--5----------2--5----------------
-3--5--2--2---3--5--2--5----3--5--2--5----------3--5--
-3--5--0--2---3--5--0--3----3--5--0--3----------3--5--
-1--3-----0---1--3----------1--3----------------1--3--

Outro ("...try."):

both guitars:

C5

-----------------------------
-----------------------------
-5-x-x-5-5-x-x-5-5-x-x-5-5\--
-5-x-x-5-5-x-x-5-5-x-x-5-5\--
-3-x-x-3-3-x-x-3-3-x-x-3-3\--
-----------------------------
Comments