Get Up Kids - Fall Semester Chords & Tabs

 

Fall Semester Chords & Tabs

Get Up Kids Chords & Tabs

Version: 1 Type: Tab 0 ratings
1 star 2 stars 3 stars 4 stars 5 stars
comments

Fall Semester Tab

Song: Fall Semester
Artist: The Get Up Kids
Album: Four Minute Mile EP (i think)
Transcribed by: BJ Woodward (sk8ing_woody@hotmail.com)

Tuning: Standard

Part A (2 times)
E|---5---3---2---3-2-----3---2-------2-3----5---3---2---3-2------------|
B|-------------------3-----------3--------------------------3----------|
G|0----0---0---0-------------------------0----0---0---0--------5---5---|
D|---------------------2---2---2---2---------------------------5---4---|
A|-------------------------------------------------------------3---3---|
E|---------------------------------------------------------------------|

Part B (4 times)
E|--------------------------------|
B|--------------------------------|
G|--------------------------------|
D|9-------7---5---5-------4-------|
A|7-------7---7---3-------3-------|
E|--------------------------------|
[ Tab from: http://www.guitartabs.cc/tabs/g/get_up_kids/fall_semester_tab.html ]
Part C (2 times)
E|--------------------------------|
B|--------------------------------|
G|----4-5-9---7---5---------------|
D|5---4-5-9---7---5-------4-------|
A|5---2-3-7---5---3-------5-------|
E|3-------------------------------|

Part D (3 times)
E|----------------|
B|----------------|
G|4---5-------7---|
D|5---5---5---7---|
A|2---3---5---5---|
E|--------3-------|

Part E (1 time)
E|--------------------------------|
B|--------------------------------|
G|4---5---4---5---4---5---7-------|
D|5---5---5---5---5---5---7-------|
A|2---3---2---3---2---3---5-------|
E|--------------------------------|

repeat Part A softly (3 times)

repeat Part D (3 times)

repeat Part E (1 time)

Part F (2 times)
E|--------------------------------|
B|--------------------------------|
G|--------5-------9---7---5-------|
D|5-------5-------9---7---5-------|
A|5-------3-------7---5---3-------|
E|3-------------------------------|

Part G (1 time)
E|--------------------------------|
B|--------------------------------|
G|----5-------5-------5-----------|
D|7---5---7---5---7---5---7---5---|
A|7---3---7---3---7---3---7---5---|
E|5-------5-------5-------5---3---|


Comments