Get Up Kids - Fall From Grace Chords & Tabs

 

Fall From Grace Chords & Tabs

Get Up Kids Chords & Tabs

Version: 1 Type: Tab 0 ratings
1 star 2 stars 3 stars 4 stars 5 stars
comments

Fall From Grace Tab

-----------------------------------------------------------------------------
			     Fall From Grace - The Get Up Kids
-----------------------------------------------------------------------------
Tabbed by: Lmwfy
Email: lmwfy@yahoo.com

Please Rate this...

Tuning: Standard...
[ Tab from: http://www.guitartabs.cc/tabs/g/get_up_kids/fall_from_grace_tab.html ]
e|-------1---2---1--------4---2----1h2p1--------------------------|
B|-----2---2---2---2--------2---2---------2-----------------------|
G|---3------------------------------------------------------------| 
D|----------------------------------------------------------------|
A|----------------------------------------------------------------|
E|----------------------------------------------------------------|

e|-------1---2---1--------4---2---1-------------------------------|
B|-----2---2---2---2--------2---2---------------------------------|
G|---3------------------------------------------------------------|
D|----------------------------------------------------------------|
A|----------------------------------------------------------------|
E|----------------------------------------------------------------|


Continue Playing Througout Whole Song
Comments