Get Up Kids - Close To Me Chords & Tabs

 

Close To Me Chords & Tabs

Get Up Kids Chords & Tabs

Version: 1 Type: Tab 0 ratings
1 star 2 stars 3 stars 4 stars 5 stars
comments

Close To Me Tab

CLOSE TO ME (Cure Cover) - Get Up Kids

By: Keane   mainjoke@yahoo.com

Bass Riff
G|---------------------------------------------------------------------------|
D|-----1111------------------------------------------------------------------|
A|-222------2222--4444-----------2222----------------------------------------|
E|---------------------44444444-------222222---------------------------------|

Chorus
e|---------------------------------------------------------------------------|
B|---------------------------------------------------------------------------|
G|-9-ring--999-------8----8--------------------------------------------------|
D|-9-------999----9--8-9--8--------------------------------------------------|
A|-7-------777----9--6-9--6--------------------------------------------------|
E|----------------7----7-----------------------------------------------------|
[ Tab from: http://www.guitartabs.cc/tabs/g/get_up_kids/close_to_me_tab.html ]
Lead Riff  Guitar  1
e|---------------------------------------------------------------------------|
B|---------------------------------------------------------------------------|
G|---8--11-8-9--8-6----------------------------------------------------------|
D|---x--x--x-x--x-x----------------------------------------------------------|
A|---6--9--6-7--6-4----------------------------------------------------------|
E|---------------------------------------------------------------------------|

Guitar 2
e|---------------------------------------------------------------------------|
B|---------------------------------------------------------------------------|
G|--444---888--444--888------4-----------------------------------------------|
D|--444---888--444--888--666-4-6-4444----------------------------------------|
A|--222---666--222--666--666-2-6-4444----------------------------------------|
E|-----------------------444---4-2222----------------------------------------|
Comments