Get Up Kids - Close To Me Chords & Tabs

 

Close To Me Chords & Tabs

Get Up Kids Chords & Tabs

Version: 1 Type: Bass Tab

Close To Me Bass Tab

Great song by an amazing band; The Get Up Kids.
This is my first time, but im sure that this is correct.
Enjoy!...
(PS:There are lots of double digits, try and stay with it)

INTRO:
G|------------------------|
D|/9------------/9---9----|
A|--10--9---------9---10--|
E|--------7^9^7-----------|

VERSE:
G|-----------------------------|
D|------/9------------/9---9---|
A|5^7^5---10--9---------9---10-|
E|--------------7^9^7----------|

PRE-CHORUS 1:
G|----------------------------------------------------------|
D|------------/9----------------------------------/9--/9----|
A|5^7^55555555--101010101010101099999999------------99--1010|
E|--------------------------------------7^9^777777----------|

PRE-CHORUS 2:
G|---------------------|
D|---------------------|
A|---------------------|
E|7^9^7777755-533333333|

PRE-CHORUS 3:
G|---------------------------|
D|---------/9----------------|
A|5^7^55555--1010101010101010|
E|---------------------------|

PRE-CHORUS 2 AGAIN

CHORUS(x2):
G|--------------------------------|
D|--------------------------------|
A|/99-99-9------------------------|
E|--------\33-33-3/55-55-5/77-77-7|
[ Tab from: http://www.guitartabs.cc/tabs/g/get_up_kids/close_to_me_btab.html ]
POST-CHORUS
G|--------------------------------------------------|
D|--------------------------------------------------|
A|5^7^55555555\2^4^22222222/14--14--14-10--10--10---|
E|-------------------------------------------------3|

VERSE(x2)
PRE CHORUS 1
PRE CHORUS 2
PRE CHORUS 3
PRE CHORUS 2
CHORUS(x2)

POST CHORUS 2
G|-------------------------------------------------|
D|-------------------------------------------------|
A|55557799----997^9^72^4^22222/14141010101010101010|
E|--------5555-------------------------------------|

OUTRO
G|-----------------------------------------------|
D|-----------------------------------------------| 
A|-----------------------------------------77--99|  x3
E|7^9^7777755333333/141412121212149^121010--99---|    

G|------------------------------------------------------------|
D|------------------------------------------------------------|
A|---------------------------------------------7799----997^9^7|
E|7^9^7777755333333/141412121212149^1210101010----9999--------|

G|-----------------------------------------------|
D|-----------------------------------------------|
A|-----------------------------------------77--99|
E|7^9^7777755333333/141412121212149^121010--99---|

G|-----------------------------------|
D|-----------5-5-5-5-5-2-2-4-2-------|
A|----------------------------245----|
E|7^9^7777755------------------------|