Get Up Kids - Campfire Kansas Chords & Tabs

 

Campfire Kansas Chords & Tabs

Get Up Kids Chords & Tabs

Version: 3 Type: Tab 0 ratings
1 star 2 stars 3 stars 4 stars 5 stars
comments

Campfire Kansas Tab

==================================
The Get Up Kids - Campfire Kansas
==================================
Tabbed by Ryan Giglio

I didn't include the rhythm, just the chord progression.  The rhythm is pretty
obvious to figure out yourself. I think this is 99% accurate.

Intro
|-----0-0-2-----0-0-2------|
|-3-2-0h2-3-3-2-0h2-3-2----|
|-2-2-0-0-2-2-2-0-0-2-2----|
|-0-4-----0-0-4-----0-2----|
|--------------------------|
|--------------------------|

Verse 1 (Woke up at 8...)
|-------2-------2----|
|-3-2---3-3-2---3----|
|-2-2-4-2-2-2-4-2----|
|-0-4-4-0-0-4-4-0----|
|-----2-------2------|
|--------------------|

Chorus (Our boats collide...)
|---------2---------2----|
|-3-2-----3-3-2-----3----|
|-2-2-4-2-2-2-2-4-2-2----|
|-0-4-4-2-0-0-4-4-2-0----|
|-----2---------2--------|
|------------------------|

Verse 2 (By noon we had swung...)
|-------2-------2----|
|-3-2---3-3-2---3----|
|-2-2-4-2-2-2-4-2----|
|-0-4-4-0-0-4-4-0----|
|-----2-------2------|
|--------------------|

Chorus (Our board collide...)
|---------2---------2----|
|-3-2-----3-3-2-----3----|
|-2-2-4-2-2-2-2-4-2-2----|
|-0-4-4-2-0-0-4-4-2-0----|
|-----2---------2--------|
|------------------------|
[ Tab from: http://www.guitartabs.cc/tabs/g/get_up_kids/campfire_kansas_tab_ver_3.html ]
Post-Chorus (The sun would set...)
|-------------------------2----|
|-3-2-----3-2-----3-2-----3----|
|-2-2-4-2-2-2-4-2-2-2-4-2-2----|
|-0-4-4-2-0-4-4-2-0-4-4-2-0----|
|-----2-------2-------2--------|
|------------------------------|

Bridge (We laughed away the sunburn...)
|-----2-----2----|
|-2-3-3-2-3-3----|
|-2-2-2-2-2-2----|
|-4-0-0-4-0-0----|
|----------------|
|----------------|

Verse 3 (Caught the last bus...)
|-----------2----|
|-3-2-----3-3----|
|-2-2-4-2-2-2----|
|-0-4-4-2-0-0----|
|-----2----------|
|----------------|

Chorus (Our boats collide...)
|---------2---------2----|
|-3-2-----3-3-2-----3----|
|-2-2-4-2-2-2-2-4-2-2----|
|-0-4-4-2-0-0-4-4-2-0----|
|-----2---------2--------|
|------------------------|

Post-Chorus (The sun would set...)
|-------------------------2---------2----|
|-3-2-----3-2-----3-2-----3-3-2-----3----|
|-2-2-4-2-2-2-4-2-2-2-4-2-2-2-2-4-2-2----|
|-0-4-4-2-0-4-4-2-0-4-4-2-0-0-4-4-2-0----|
|-----2--------2-------2---------2-------|
|----------------------------------------|

***************************************************************************************
* Generated using Power Tab Editor by Brad Larsen - http://powertab.guitarnetwork.org *
***************************************************************************************
Comments