Get Up Kids - Burned Bridges Chords & Tabs

 

Burned Bridges Chords & Tabs

Get Up Kids Chords & Tabs

Version: 1 Type: Tab 0 ratings
1 star 2 stars 3 stars 4 stars 5 stars
comments

Burned Bridges Tab

   
BURNED BRIDGES - Get Up Kids

by Ryan Johnson
Dysphoria00@hotmail.com

Dropped D(DADGBe)

Intro:
guitar 1 (clean):
----------------
----------------
-7---7---7---7--
-7---7---7---7--
-5---4---x---x--
-----4---7---6-- 

First Verse (drums in; "At this point in my life..."):

guitar 1:
------------------------------------
------------------------------------
-7----------7----------7---------7--
-7----------7----------7---------7--
-5----------4----------x---------x--
------------4----------7---------6--

guitar 2 (clean):
---------------------------------------------
-3--3-2------------------5----------5-3-2-0--
-2------2p0-2--2/4-4/6-----2-4-2-4-----------
---------------------------------------------
---------------------------------------------
---------------------------------------------

    then ("...that surround."):

guitar 1 : same

guitar 2:
                                    *distortion on
-------------------------------------------------
-3--3-2------------------5-----------------------
-2------2p0-2------4-4/6---------4---------------
------------------------------------x\--(pick)---
---------------------------------------(scrape)--
-------------------------------------------------

    then ("My harvest gone at the price of maturity..."):

guitar 1 (distortion on):
-------------------------------------------------------
-------------------------------------------------------
-7-----------------------------------------------------
-7---------------4---5---6--------5-----------------5--
-5---------------4---5---6--------5-----------------5--
-----------------4---5---6--------5-----------------5--

guitar 2:
-------------------------------------------------------------------
-------------------------------------------------------------------
-6-7-6--6-6-7-6-----14--13-14-13------6-------7p6-------6---9-/11--
-7-7-7--7-7-7-7--7------------------7---7---7-----7---7---7--------
-5-5-5--5-5-5-5--4--12--11-12-11--5-------5---------5-------7-/-9--
-----------------4------------------------------------------------- 

First and Second Chorus (play twice through the second time; "Again and again..."):

guitar 1:
D5-Bb5-D5-Bb5-D5-Bb5-D5-Bb5

---------------------------------
---------------------------------
---------------------------------
-0-/8--0-/8---0-/8---0--8-8-8-8--
-0-/8--0-/8---0-/8---0--8-8-8-8--
-0-/8--0-/8---0-/8---0--8-8-8-8--

guitar 2:
-------------------------------------
-------------------------------------
-11-9--7--6--11--9---7--6-6-6-6-6/7--
-------------------------------------
--9-7--5--4---9--7---5--4-4-4-4-4/5--
------------------------------------- 

Second Verse ("...next generation of children..."):

guitar 1:
-------------------------------
-------------------------------
-------------------------------
--------------------------0----
------4h5-----------------4h5--
-/6-------------------4--------

guitar 2:
-----------------------------
-----------------------------
-7/9/11---7---6---7---7------
------------7-------7-7---7--
-5/7/-9-5-------5---------5--
-----------------------------

    then ("...not the only one..."):

guitar 1:
----------------------------------------------------
----------------------------------------------------
----------------------------------------------------
--------------0-------------------------------------
--------------4h5-----------------------------------
-6-----------------------------------------------4--

guitar 2:
------------------------------------------------------------------
------------------------------------------------------------------
-7-7-7-7-7-7-7-7-7-7-7-7---------7-7-7-7---------7-6-7-6-7-6------
-------------------------7-7-7-7---------7-7-7-7-------------7-7--
------------------------------------------------------------------
------------------------------------------------------------------

    then ("...only to a de-gree."):

guitar 1:
------------------------------------------------
------------------------------------------------
-7-7-7-7--7-------------------------------------
-7-7-7-7--7----------4-----------7-----------6--
-5-5-5-5--5----------4-----------7-----------6--
-0-0-0-0--0----------4-----------7-----------6--

guitar 2:
-----------------------------------------------------------
-----------------------------------------------------------
-7-7-7-7--7--7-6---------------------9---------------------
-7-7-7-7--7------7---7--7/9-9/11---------9---9---9-7-------
-5-5-5-5--5--------5---------------0---0---0---------9/11--
-0-0-0-0--0----------------------------------6-------------

    then ("The fire that..."):
[ Tab from: http://www.guitartabs.cc/tabs/g/get_up_kids/burned_bridges_tab.html ]
guitar 1:
-------------------------------------
-------------------------------------
-7-----------------------------------
-7----------4----7---6------(pick)---
-5----------4----7---6--x\-(scrape)--
-0----------4----7---6---------------

guitar 2:
------------------------
------------------------
-6--7-6----------6------
-7------7---7----7---9--
-5--------5----x-x------
------------4--x-7---6--

    then ("Nothing new to scream beyond..."):

guitar 1:
-------------------------------------------------------
-------------------------------------------------------
-7-----------------------------------------------------
-7---------------4---5---6--------5-----------------5--
-5---------------4---5---6--------5-----------------5--
-----------------4---5---6--------5-----------------5--

guitar 2:
-------------------------------------------------------------------
-------------------------------------------------------------------
-6-7-6--6-6-7-6-----14--13-14-13------6-------7p6-------6---9-/11--
-7-7-7--7-7-7-7--7------------------7---7---7-----7---7---7--------
-5-5-5--5-5-5-5--4--12--11-12-11--5-------5---------5-------7-/-9--
-----------------4------------------------------------------------- 

Bridge ("...harvest the crops of my past."):

guitar 1 (clean):
D5
----
----
-7--
-7--
-5--
----

guitar 2 : out

    then:

guitar 1 (distortion on):
F#5------D5---------------F#5-----D5

-----------------------------------------------------
-----------------------------------------------------
-----------------------------------------------------
-4-4-4-4------------------4-4-4-4--------------------
-4-4-4-4-0-0-0-0-0-0-0-0--4-4-4-4-0-0-0-0-0-0-0-0-0--
-4-4-4-4-0-0-0-0-0-0-0-0--4-4-4-4-0-0-0-0-0-0-0-0-0--

guitar 2:
        (N.H.----------)          (N.H.----------)
---------------------------------------------------
---------------------------------------------------
---------7---7---7---7------------7---7---7---7----
-7-6---6---7---7---7---7--7-6---6---7---7---7---7--
-----7------------------------7--------------------
---------------------------------------------------

    then:

guitar 1:
F#5------D5---------------F#5

-----------------------------------
-----------------------------------
-----------------------------------
-4-4-4-4------------------4-4-4-4--
-4-4-4-4-0-0-0-0-0-0-0-0--4-4-4-4--
-4-4-4-4-0-0-0-0-0-0-0-0--4-4-4-4--

guitar 2:
        (N.H.-----------)
-----------------------------------
-----------------------------------
---------7---7---7---7-------------
-7-6---6---7---7---7---7--7-6---6--
-----7------------------------7----
----------------------------------- 

Outro ("As far as the demigods are concerned..."):

guitar 1:
A5-F#5-------A5-F#5        A5-F#5-------A5-F#5---------D5

-------------------------------------------------------------
-------------------------------------------------------------
-------11--7--------11--7---------11--7--------11--11--------
-7--4---------7--4----------7--4---------7--4----------0--0--
-7--4---9--5--7--4---9--5---7--4---9--5--7--4---9---9--0--0--
-7--4---------7--4----------7--4---------7--4----------0--0--

guitar 2:
                                                     (N.H.-----------)
-----------------------------------------------------------------------
------------------------------------------------------7---7---7---7----
-6------7-----6------7------6------7-----6------7--7----7---7---7---7--
----7------0-----7------0------7------0-----7---7--7-------------------
-4--4---5--0--4--4---5--0---4--4---5--0--4--4---5--5-------------------
----4------0-----4------0------4------0-----4---0--0-------------------

    then ("[Here I reside]..."):

guitar 1 (clean):
         D5
------------------------------------------------------------
------------------------------------------------------------
------------------------------------------------------------
-------------------------0---------------0---------------0--
---------0---------------0---------------0---------------0--
-4-------0-------4-------0-------4-------0-------4-------0--

guitar 2:
------------------------------------------------------------
------------------------------------------------------------
------------------------------------------------------------
------------------------------------------------------------
------------------------------------------------------------
-4-4-4-4-0-0-0-0-4-4-4-4-0-0-0-0-4-4-4-4-0-0-0-0-4-4-4-4-0--

    then ("But within these fields..."):

guitar 1 : out

guitar 2:
------------------------------------------------------------
------------------------------------------------------------
------------------------------------------------------------
-7-6---6---------7-6---6---------7-6---6---------7-6---6----
-----7---5-5-5-5-----7---5-5-5-5-----7---5-5-5-5-----7---5--
------------------------------------------------------------
Comments