Get Up Kids - Better Half Chords & Tabs

 

Better Half Chords & Tabs

Get Up Kids Chords & Tabs

Version: 1 Type: Tab 0 ratings
1 star 2 stars 3 stars 4 stars 5 stars
comments

Better Half Tab

BETTER HALF - Get Up Kids

by Ryan Johnson
Dysphoria00@hotmail.com

First Intro:
guitar 1 (clean):
-------------------------------------------------------------------
---------0------------------------------------------------3-0---0--
-----0-----0----------0---------------0-----0---0-------------0----
---0---0-------0----0---0---0---0---0---0-----0-------0------------
-3-----------3---/5-----------5---7-----------------2---2----------
--------------------------------------------------3----------------

    then:
[ Tab from: http://www.guitartabs.cc/tabs/g/get_up_kids/better_half_tab.html ]
guitar 1:
                                 *(stick clicks in)
-----------------------------------------------------------------
---------3-0---0-----0---5---7--/8---8---8---8--/12--12--12--12--
-----0-------0---------------------------------------------------
---0---0-----------0---0---0---0---------------------------------
-3--------------/5-----------------7---7---7---7---10--10--10----
-----------------------------------------------------------------

    then:

guitar 1 : same

guitar 2 (clean):
-----------3p2-------------3p2-------------3p2--------3p2---3p2---
-----3---------------3---------------3----------------------------
-0---------------0---------------0----------------0-------0-------
------------------------------------------------------------------
------------------------------------------------------------------
------------------------------------------------------------------

    then:

guitar 1 : same
Comments