Gershwin George - Summertime Solo Guitar Chords & Tabs

 

Summertime Solo Guitar Chords & Tabs

Gershwin George Chords & Tabs

Version: 1 Type: Tab 2 ratings
1 star 2 stars 3 stars 4 stars 5 stars
comments

Summertime Solo Guitar Tab

                        Summertime (Guitar Arrangement)                         


                                                                 George Gershwin
By James Gallichio



                                                     
E||--------------------------|----------------------|
B||--------------------------|----------------------|
G||--3--2--3--2--0-----0--2--|--4-------------0--2--|
D||-----------------2--------|-------------2--------|
A||--1--0--1--------------0--|--4----------------0--|
E||--------------0--0--3-----|-------------0--3-----|


                                                                              
-----------12--------------|--------------------------|----------------------|
---------------13--10------|------0-------------------|----------------------|
--4--------------------11--|---------0----------------|----------------------|
---------------------------|--12-----------------1----|-------1---------1----|
--2------------------------|----------------4---------|--4---------4---------|
---------------------------|------------12------------|----------------------|


                                                                           
-------7---------7-----|--7-------------------|--------5------------------|
--------------------8--|------------4---------|-----------8--10--12--8----|
------------7----------|-------6----6---------|--------6-----9-------5----|
--5---------7----------|-------5----7---------|--------5-----10------7----|
--4---------6----------|----------------------|--------------9-------6----|
-----------------------|--0--------------7----|--12-----------------------|


                                                                                
--0-------------------|-------0----7----------|--5--5--------------------------|
------------0---------|--0----0----0----8-----|--------------------------6--7--|
--6---------7---------|--0----0----0----7--6--|--5-----5--7--8--9-----9--5--6--|
--5---------7---------|-------0---------------|--------------------------------|
--7---------6---------|--4---------6----7-----|--7--------8--9--10-------5--6--|
-------7---------7----|-----------------------|--------------------------------|


                                                      
-------3-----3-----3----|--------7--6----------9--8--|
--8-------5-----5--5----|--7--7--9--8--10------------|
--7----5-----4-----3----|--4-----8--7--11--11--------|
------------------------|--------------8-------------|
--7----3-----3-----4----|--6-------------------------|
------------------------|--------------8-------------|


                                                        
--7---------------------8------|--7--7-------7---------|
--9------------------12---12-8-|-------------4---------|
--8----------------------------|--------6----6---------|
-------------------------------|--------5----7---------|
--------11--10--9----8---------|-----------------------|
-----7-------------------------|--0---------------7----|


                                                                               
----------------------------|--0-------------------|---------------------0----|
--------10--8--10--12--8----|------------0---------|--------0--2--4-----------|
--------8------9-------7----|-------6----8---------|--0---2-------0-----------|
--------8------10------7----|-------5----7---------|--4-----------------------|
---------------9-------6----|------------8---------|--4-----------0-----------|
--12------------------------|--0--------------7----|--0-----------------------|


                                                                          
-------------0--3--------|-----------7--5-------|--0---------------------|
--3----0--3--0-----------|--0--------5-----8----|--0---------------------|
--2----0--0--2-----------|--0--------6-----5----|--0---------------------|
--0-------4--3-----2h-0--|-----------------7----|----------------2-------|
-------------------------|--4-------------------|-------5--4--5-----4----|
--3----------------------|-----------------7----|--0---------------------|


                                                                           
------------------------|-------7---------7----|-------7-------7--10--12--|
----------------0-------|----------------------|--------------------------|
-------2---0-2----------|----------------------|--6---------7-------------|
------------------------|--5---------7---------|--5---------7-------------|
--2----3-----4-------6--|--4---------6---------|--0---------6-------------|
------------------------|----------------------|--------------------------|


                                                                            
--7~-7-----------------|-----5--5--3--------7-----|--0---------------------|
----------7--5----4----|--3-----------10-------8--|------------0-----------|
----------0--4---------|--3-----------8-----------|-------6----13----12----|
-------------3---------|--2-----------7-----------|-------5----13----------|
-----------------------|--------------------------|------------12----------|
--0~---------3---------|--2-----------7-----------|--0---------------------|


                                                                               
--------0----7---------|--5--5-----5--5--------------|-------3-----3-----3----|
-------------8----8----|-----3--4--5--5----6----7----|--8-------5-----5--5----|
--11---------7----6----|--5----------------5----6----|--7----5-----4-----3----|
--11-------------------|-----3--4--5--5--------------|------------------------|
--10---------7---------|--0----------------5----6----|--7----3-----3-----4----|
------------------0----|-----------------------------|------------------------|


                             
--------7--6----------9--8--|
--7--7--9--8--10------------|
--4-----8--7--11--11--------|
--------------8-------------|
--6-------------------------|
--------------8-------------|

[ Tab from: http://www.guitartabs.cc/tabs/g/gershwin_george/summertime_solo_guitar_tab.html ]
                                                                              
--7-----------------------------------10-8---------8-|--7--7-----------------|
--9---------------------------8-12-10-----------12---|-------------4---------|
--8-------------------------8--------------10-8------|--------6----6---------|
-----------------------------------------------------|--------5----7---------|
--------11--10--9--8-7-9-10--------------------------|-----------------------|
--7--7-----------------------------------------------|--0---------------7----|


                                                                                
-------------------5--7-----|--0-------------------|----------------------0----|
--------12----10-8-6-----8--|------------0---------|--------0--2--4--4---------|
--------12---------5--------|-------6----8---------|--0---2-------0--0---------|
--------12------------------|-------5----7---------|--4------------------------|
----------------------------|------------8---------|--4-----------0--0---------|
--12---------------7--------|--0--------------7----|--0------------------------|


                                                                      
-------------0--3-------|--------7--5--7--5-------|--0---------------|
--3----0--3--0-----0----|--------------5-----8----|-------0--1----0--|
--2----------2-----1----|-----0--7-----6-----5----|-------0--2-------|
--0----------3-----3----|--------------------7----|-------4----------|
------------------------|--3----------------------|-------4--2-------|
--3---------------------|--------------------7----|--0---------------|


                                                              
--0-------2--3--5--|------------------|-------------5--------|
-------0-----------|--12--------------|----10---10--5----8---|
-------0-----5-----|--12------9-------|----9----9---7----8---|
-------4-----7-----|--12------9-------|----9----9---8----12--|
-------4-----------|------------------|----8----8---9----12--|
--0----------7-----|--12------10------|--9-------------------|


                                                                                
--0--------10----8--|--7-0-----3--3--7--|--5--------------|-----3--3--3--5--3--|
-------0---8--------|----------3--------|-------5--4------|--5--------5--------|
-------11--8--------|----------5--------|-------5--5------|--5--------4--------|
-------11--7--------|----------6--------|-------5--4------|--3--------3--------|
-------10-----------|----------7--------|----------5------|--5-----------------|
--0-----------------|--0----------------|--5--------------|-----------3--------|


                                                            
--2---------------|-------7--7--7--10--|--12---------------|
--4------3--------|-------6--6--6------|--------11---------|
--4------3--------|-------5--5--5--7---|--9---------9------|
--2------2--------|--------------------|------------9------|
--4---------0--1--|--------------------|------------8------|
---------2--------|--7----------7------|--0----------------|


                                                                          
------------------------|---------------------------|-----------------5--|
-----10--10-----10--10--|--10-11-10-8-5-----5-------|-----5--------------|
--7----------7----------|----------------4----------|--4-----4--5--6-----|
--7----------7----------|----------------9-----7----|--------------------|
--7----------6----------|----------------------6----|-----------0--------|
------------------------|--0------------------------|--0-----------------|


                                                           
------------0--3--0--|-----------------|--0---------------|
--3--3h0-3--0--------|--12------8------|---------------7--|
--2---------2--------|--12------7------|------------------|
--0---------3--------|--12------7------|-------5--7-------|
---------------------|-----------------|-------4--6-------|
--3------------------|--8-------7------|--0---------------|


                                                                       
---------------------|---------------------|--------------------------|
---------------------|------------5--------|--------------------------|
-------------------7-|--4-4-------4--------|--2-3-2-----------2-5h2-3-|
--5----5--7------7---|------------3--------|--------5h4-2/1-4---------|
--4----4--6----7-----|------3--4-----4-----|------------3/2-----------|
---------------------|------------------3--|--2-----------------------|


                                                               
---------------------|----------------|----7--5-----------10--|
---------------------|----------------|----------8-7----------|
--4-0----------------|----------------|--5------------9-------|
------------------7--|--5------6------|---------------10------|
------0h-3--4--5--6--|---------5------|--0--------------------|
--0------------------|---------0------|---------------10------|


                                                                         
-----------------8-----|--7---------------|-----------------------------|
--11----------------8--|-------9--9----9--|--8----------6h7-------------|
------10--10--9--------|-------9--9----9--|--8------7h8-----8h7----7----|
------8---8---8--------|-------7--7----7--|----9h10-------------10---10-|
------10--10-----------|-------9--9----7--|-----------------------------|
--------------8--------|------------------|-----------------------------|


                                                                  
------------------|-----------------7-----|----------------------|
-----8------------|-----10--10--10-----8--|------------------10--|
--------9---------|--7----------7---------|--9-----12--11--------|
--9--------9------|--7----------7---------|-----9----------------|
-----------8------|--7----------6---------|----------------------|
--0---------------|-----------------------|--0---------11--------|


                                                         
----------14--11--12----|-------------------------------|
------12------0---------|-------------------------------|
--12----------0---------|--7------7-8-11-9--------------|
--12----------11--------|----9h10----------9------------|
--------------0---------|--------------------10h9-------|
--12--------------------|-------------------------12-10-|


                                                                   
----------------------------10-|--------------------------|------||
-------------------------12----|--12----------------------|------||
-------------------------------|--11----------------------|------||
-------12-11-10----------------|--------------------------|------||
----10-------------------------|--------------------------|------||
--8-------------12-11----------|--0-----11----12----10----|------||


Comments