Gershwin George - I've Got Plenty Of Nothing Chords & Tabs

 

I've Got Plenty Of Nothing Chords & Tabs

Gershwin George Chords & Tabs

Version: 1 Type: Tab 0 ratings
1 star 2 stars 3 stars 4 stars 5 stars
comments

I've Got Plenty Of Nothing Tab

#----------------------------------PLEASE NOTE---------------------------------#
#This file is the author's own work and represents their interpretation of the #
#song. You may only use this file for private study, scholarship, or research. #
#------------------------------------------------------------------------------#
#

George Gershwin:
Porgy and Bess
Porgy's song / Act II/ scene1:


  | | | 
|---------------------------7-------3--------------------------------------|
|---0---1---3---3---3---5---7---3---3---55--3---4---0-------0-------0---0--|
|---0---2---4---5---4---5---7---5-------55--4---4---1---2---1---2---1---1--|
|---0---2---4---7---------------4---------------7-------2-------2-----2----|
|-----------------------------------------------------0-------0-------0----|
|-3---3---3---3---3---3---3---3---3---3---3---7---0-------0-------0-----0--|

           
|----------------------------77--5---3-------------------------------------|
|--------------------3---5---77--5---3---5---3---0---0-------0-------0-----|
|---6---6---6----7---4---5---77----------5---4---6---1---2---1---2---1-----|
|---6---6---6----7-------------------------------7-------2-------2-----2---|
|---8---8---8----9-------------------------------------0-------0-------0---|
|-9---9---9---10---3---3---3---3---3---3---3---7---0-------0-------0-----0-|

|------------------------00--2-------|
|--------------------3---11--3---3---|
|---6---6---6----7---4---22--4---4---|
|---6---6---6----7---5---------------|
|---8---8---8----9-------------------|
|-9---9---9---10---3---3---3---3-----|
[ Tab from: http://www.guitartabs.cc/tabs/g/gershwin_george/ive_got_plenty_of_nothing_tab.html ]
I got no lock on the door____________
|-----------------------------------------------------------------------|
|-----------3---5---3---3---3---5---3---3---3---5-----------------------|
|-----------4---4---4---4---4---4---4---4---4---4-----------------------|
|-----------------------------------------------------------------------|
|-2-------2-------2-------2-------2-------2-------2---0---5---0---5-----|
|-----0-------0-------0-------0-------0-------0-------------------------|

            Oh, I got...
|---------------------77------3-------------------------------------|
|-------------3---5---77--3---3---5---3---4---0-------0-------0---0-|
|-------------4---5---77--5-------5---4---4---1---2---1---2---1-2-1-|
|-12-10-9-7-5-------------4---------------7-------2-------2-----2---|
|-----------------------------------------------0-------0-------0---|
|-10-8--7-5-3---3---3---3---3---3---3---7---0-------0-------0-----0-|

|------------------------------------------------------------------------|
|-----------6---6---6-------3---55--3-------3---55--3-----3-3---5---8--5-|
|---6---6---6---6---6---7---4---55--4-5-----4---55--4-5---4-4---3---7--5-|
|---6---6---6---6---6---7-------77----7---------77----5----------------4-|
|---8---8---------8---5---------------5---------------3-------3---5------|
|-9---9---9---4-----------3---3---3-------3---3---3-------3--------------|

|-------------0------------------|
|-3-3-3-3-------3--0-------3-----|
|-3-3-5-5--------3--0--0---------|
|-3-3-4-4-0-----------2----5-----|
|--------------------------------|
|--------------------------3-----|
piano arranged for guitar by Pinter Denes
dpinter@eik.bme.hu
this arrangement is based on a MIDI-file available at
http://www.dtx.net/~raborn
Comments