Gerry Rafferty - Baker Street Chords & Tabs

 

Baker Street Chords & Tabs

Gerry Rafferty Chords & Tabs

Version: 1 Type: Tab 1 rating
1 star 2 stars 3 stars 4 stars 5 stars
comments

Baker Street Tab

e-----13--12--10-----10~~~--------13--12--10-------------------------------
b--10------------13------------10------------13--10~~~~--------------------
g--------------------------------------------------------------------------
d--------------------------------------------------------------------------
a--------------------------------------------------------------------------
e--------------------------------------------------------------------------
[ Tab from: http://www.guitartabs.cc/tabs/g/gerry_rafferty/baker_street_tab.html ]
e-----13--12--10-------------------------------------13--12----10--12--10~~
b--10------------13--13~~--13--13~~--13--10-------10--------13-------------
g--------------------------------------------------------------------------
d--------------------------------------------------------------------------
a--------------------------------------------------------------------------
e--------------------------------------------------------------------------


i figured this whole thing out by ear and i played along with the song and it sounds right. have fun
Comments