Gerolmo Chris - Over There Chords & Tabs

 

Over There Chords & Tabs

Gerolmo Chris Chords & Tabs

Version: 1 Type: Tab 6 ratings
1 star 2 stars 3 stars 4 stars 5 stars
comments

Over There Tab

   
Chris Gerolmo - Over there (theme song)
=======================================

Artist : Chris Gerolmo
Song   : Over there (theme song)
Tab    : Thomas Teigland, thomas_teigland@yahoo.com

Lots of people requested this song,
so here is my interpretation, enjoy.

Basically its easy strumming variations on
the chords G - Em - D - C, pretty simple.

h = hammer on
p = pull off
s = slide

+++++

Intro:
    G                    
e-----3-3-----------------------------------------
B-----3-3-----------------------------------------
G-----0-0-----------------------------------------
D-------------------------------------------------
A-----------0h2-0---0-----------------------------
E---3-----3-------3-------------------------------
    
    Em
e-----3p0---0--0----0-----------------------------
B-----3---3----3s5--5s3--0------0-----------------
G-----0------------------2s4s2--0-----------------
D-------------------------------------------------
A-------------------------------------------------
E---0---------------------------------------------

    D
e---0-------2-2-3---5-----------------------------
B---2-------3-3-3---3-----------------------------
G---3-------2-2-2---------------------------------
D---0---------------------------------------------
A-------------------------------------------------
E-------------------------------------------------
[ Tab from: http://www.guitartabs.cc/tabs/g/gerolmo_chris/over_there_tab.html ]
    C
e-------------------------------------------------
B---1-----------1---------------------------------
G---0-------0---0h2---0---------------------------
D---2---0h2--2------2-----------------------------
A---3---3-----------------------------------------
E-------------------------------------------------

Verse:

    G      Em       D         C
e-----3-3-----0-0------0-0------------------------
B-----3-3-----0-0------2-2----1-----------1-------
G-----0-0-----0-0------3-3----0-------0---0h2---0-
D-------------------0---------2---0h2--2------2---
A-----------------------------3---3---------------
E--3-------0--------------------------------------

Bridge:

    D        C                    D        C
e---0--0-0------------------------0--0-2----------
B---3--3-3---1----------1---------3--3-3---1------
G---2--2-2---0------0---0h2----0--2--2-2---0------
D---0--------2--0h2--2------2-----0--------2------
A------------3--3--------------------------3------
E-------------------------------------------------

Chorus:

    G      Em       D         C
e-----3-3-----0-0------0-0------------------------
B-----3-3-----0-0------2-2----1-------------------
G-----0-0-----0-0------3-3----0-------------------
D-------------------0---------2-------------------
A-----------------------------3-------------------
E--3-------0--------------------------------------


The order of the song is like follows:

Intro
Verse (x2)
Bridge
Chorus
Repeat chorus until end of song.

Thats it, enjoy!
27/08/05
- EOF -
Comments