Germs - What We Do Is Secret Chords & Tabs

 

What We Do Is Secret Chords & Tabs

Germs Chords & Tabs

Version: 1 Type: Tab 0 ratings
1 star 2 stars 3 stars 4 stars 5 stars
comments

What We Do Is Secret Tab

-----------------------------------------------------------------------------
			WHAT WE DO IS SECRET - GERMS
-----------------------------------------------------------------------------
By:SkA_MaN


Verse

e|-------------------------------------------------|
B|-------------------------------------------------|
G|--------------4----2------------2----4---2-------|
D|----4----5----4----2---4----5---2----4---2---5---|
A|----4----5----2----0---4----5---0----2---0---5---|
E|----2----3-------------2----3----------------3---|

Chorus
[ Tab from: http://www.guitartabs.cc/tabs/g/germs/what_we_do_is_secret_tab.html ]
e|----------------------------------|
B|----------------------------------|
G|--2----5---4-------5---4----------|
D|--2----5---4-------5---4----------|
A|--0----3---2-------3---2----------|
E|----------------------------------|

Bridge

e|------------------------------------------------|
B|------------------------------------------------|
G|--2------7----5--------2------7---5-------------|
D|--2------7----5--------2------7---5-------------|
A|--0------5----3--------0------5---3-------------|
E|------------------------------------------------|

=============================================================================
Comments