Germs - Shutdown Chords & Tabs

 

Shutdown Chords & Tabs

Germs Chords & Tabs

Version: 2 Type: Bass Tab 0 ratings
1 star 2 stars 3 stars 4 stars 5 stars
comments

Shutdown Bass Tab

From: drunkbutterfly@adelphia.net
Subject:  Germs-Shutdown

g-----------------------------------------------------
d-----------------------------------------------------
a-----------------------------------------------------
e-0-3--0-3--0-3-5-3-----------------------------------
                       repeat as necessary
[ Tab from: http://www.guitartabs.cc/tabs/g/germs/shutdown_btab_ver_2.html ]
  then
g------------------------------------------------------
d------------------------------------------------------
a-0-3--0-3--0-3-5-3------------------------------------
e------------------------------------------------------


  then
g------------------------------------------------------
d-0-3--0-3--0-3-5-3------------------------------------
a-------------------0-3--0-3--0-3-5-3------------------
e-------------------------------------0-3--0-3--0-3-5-3

if anyone has any other germs tab email me  
drunkbutterfly@adelphia.net
Comments