Germs - Round And Round Chords & Tabs

 

Round And Round Chords & Tabs

Germs Chords & Tabs

Version: 1 Type: Bass Tab 0 ratings
1 star 2 stars 3 stars 4 stars 5 stars
comments

Round And Round Bass Tab

Song:Round and Round
band:Germs
Records:(MIA)The Complete Anthology & Live at the Whisky
(its on both records but this is the studio version)

---------------------ROUND--&--ROUND----------------------
Verse
(1st part)
E|3|------55-3-5-------55-3-5--------------------55-3-5-|
A|-|--------------------------------55-3-5--------------|
D|-|----------------------------------------------------|
G|-|----------------------------------------------------|
[ Tab from: http://www.guitartabs.cc/tabs/g/germs/round_and_round_btab.html ]
E|--------------------------55-3-5|
A|-------77-5-7-------------------|
D|--------------------------------|
G|--------------------------------|
(2nd part)
E|------55-3-5-------55-3-5--------------------55-3-5-|
A|--------------------------------55-3-5--------------|
D|----------------------------------------------------|
G|----------------------------------------------------|

E|--------------------------------5|
A|---------------77-5-7-5---55-3-5-|
D|---------------------------------|
G|---------------------------------|

CHORUS
E|5-55-3-55-33--55-3-55-33--------------55-3-55-33--|
A|--------------------------55-3-55-33--------------|
D|--------------------------------------------------|
G|--------------------------------------------------|

E|----------------5|
A|777--555--55-353-|
D|-----------------|
G|-----------------|

ORDER:
Verse
chorus
verse
chorus
chorus
and so on
Note:if you play the first part of the verse you should realize that it
only applys in the first time its played from then on the second part is played twice!
BY EMAN-----------THIS IS FOR A FEMALE GERM FAN-SORRY IT TOOK SO LONG!
Comments