Germs - Richie Daggers Crime Chords & Tabs

 

Richie Daggers Crime Chords & Tabs

Germs Chords & Tabs

Version: 1 Type: Tab 0 ratings
1 star 2 stars 3 stars 4 stars 5 stars
comments

Richie Daggers Crime Tab

   
-----------------------------------------------------------------
Richie Dagger's Crime - The Germs
-----------------------------------------------------------------
Tabbed by: Dillon
Email: Angelic_oioi_upstart@yahoo.com

Tuning:Standard


Intro:
Rhythm guitar simply mutes all frets at two and strokes up and down while lead plays this
e|---------------------------------------------------------------|
B|---------------------------------------------------------------|
G|---------------------------------------------------------------|
D|----------5----------------------(play this twice)-------------|
A|--5---4-43-34-4^55-4^55----------------------------------------|
E|-3-345-5-------------------------------------------------------|

Verse:
Lead only. The mutes are done with the finger set across the second fret.
e|-------------xxxx----------------------------------------------|
B|-------------xxxx----------------------------------------------|
G|---7---6-5-7-xxxx---(2 times)----------------------------------|
D|-5-7-7-6-5-5-xxxx----------------------------------------------|
A|-5-5-7-4-3---xxxx----------------------------------------------|
E|-3---5-------xxxx----------------------------------------------|

Going into chorus:
e|-------------4^------------------------------------------------|
B|---------------------------------------------------------------|
G|---7---6---8---------------------------------------------------|
D|-5-7-7-6-9-8-------22222222------------------------------------|
A|-5-5-7-4-9-6-------22222222------------------------------------|
E|-3---5---7---------00000000------------------------------------|

Chorus:
e|--5------------5-----------------------------------------------|
B|-3-35h6-3-3h5h6--5h6p5-3---------------------------------------|
G|---------------------------------------------------------------|
D|--------------------------22-22-22-22--------------------------|
A|--------------------------22-22-22-22--------------------------|
E|--------------------------00-00-00-00--------------------------|
[ Tab from: http://www.guitartabs.cc/tabs/g/germs/richie_daggers_crime_tab.html ]
End of chours:
e|--5------------------------------------------------------------|
B|-3-356^--------------------------------------------------------|
G|---------------------------------------------------------------|
D|---------------------------------------------------------------|
A|---------------------------------------------------------------|
E|---------------------------------------------------------------|

Bridge:
Rhythm
e|---------------------------------------------------------------|
B|---------------------------------------------------------------|
G|---------------------------------------------------------------|
D|-222-555-222---------------------------------------------------|
A|-222-555-222-3h4-5-5-3-----------------------------------------|
E|-000-333-000---------------------------------------------------|

Solo during bridge:
e|-----------------------------------5---------------------------|
B|----------------------------------3-356^-----------------------|
G|-----24------24------------------------------------------------|
D|-2225--2-2225--2-2225552-222000--------------------------------|
A|-------------------------------444-----------------------------|
E|---------------------------------------------------------------|

Outro:
e|---------------------------------------------------------------|
B|---------------------------------------------------------------|
G|--------------55-55-1212-1212----------------------------------|
D|--------------55-55-1212-1212----------------------------------|
A|-4h5-5-4h5-5--33-33-1010-1010----------------------------------|
E|---------------------------------------------------------------|

| / slide up
| \ slide down
| h hammer-on
| p pull-off
| ~ vibrato
| + harmonic
| x Mute note

#----------------------------------PLEASE NOTE---------------------------------#
#This file is the author's own work and represents their interpretation of the #
#song. You may only use this file for private study, scholarship, or research. #
#------------------------------------------------------------------------------#
Comments