Germs - Media Blitz Chords & Tabs

 

Media Blitz Chords & Tabs

Germs Chords & Tabs

Version: 1 Type: Bass Tab

Media Blitz Bass Tab

   
Song : Media Blitz
Band : The Germs
Tuning: Standard

h= hammer on


G -----------------------------------|
D -----------------------------------|
A --------------------444444---------|
E 666---222---666-66----------222222-|


G ----------------------------------------10101010--|
D -----------------------------3333-----------------|
A -------4444444---------------------8888-----------|
E 666666---------2222222-1111-----------------------|

G ----------------------------------------10101010----|
D ----------------------------------------------------|
A --------4h664h66--------4h6664h66---8888------------|
E 4h664h66--------4h664h66----------------------------|

G ----------------------------------------|
D ----------------------------------------|
A --------4h664h66--------4h6664h66-------|
E 4h664h66--------4h664h66----------------|
[ Tab from: http://www.guitartabs.cc/tabs/g/germs/media_blitz_btab.html ]
G -------------------------------|
D -------------------------------|
A 999-11-11-11-11-13-13-11-11-99-|
E -------------------------------|

G -------------------------------|
D -------------------------------|
A 999-11-11-11-11-13-13-11-11-99-|
E -------------------------------|

G -----------------------------------|
D -----------------------------------|
A --------------------444444---------|
E 666---222---666-66----------222222-|

G -----------------------|
D -----------------------|
A -------4444444---------|
E 666666---------2222222-|

G -----------------------|
D -----------------------|
A -------4444444---------|
E 666666---------2222222-|

G ----------------------------------------10101010--|
D -----------------------------3333-----------------|
A -------4444444---------------------8888-----------|
E 666666---------2222222-1111-----------------------|

G ----------------------------------------|
D ----------------------------------------|
A --------4h664h66--------4h6664h66-------|
E 4h664h66--------4h664h66----------------|

G -------|
D -------|
A -------|
E -4h666-