Germs - Manimal Chords & Tabs

 

Manimal Chords & Tabs

Germs Chords & Tabs

Version: 1 Type: Bass Tab 0 ratings
1 star 2 stars 3 stars 4 stars 5 stars
comments

Manimal Bass Tab

tabbede by dane lisieski

germs
manimal
MIA

INTRO
G(--------------------)
D(----------0---------)
A(-00002---3-32-------)
E(-----3-0-0----------)

VERSE
(-----------------------------------------------------)
(-----------------------------------------------------)
(-00000000---------0000000----------0000000-----------)
(---------33333333---------33333333---------33333333--)
[ Tab from: http://www.guitartabs.cc/tabs/g/germs/manimal_btab.html ]
VERSE 2
(-------------------)
(-------------------)
(--74-754--52-532---)
(-5--5---53--3------)

CHOURS
(----------------------/-----------------------)
(----------------------/------7----------------)
(------7---------------/-----------------------)
(-5555----132323-------/-5555---1323232323-----)

Great song, one of my favorits
there it is, have fun
any problems contact me at dbom90@aol.com
Comments