Germs - Forming Chords & Tabs

 

Forming Chords & Tabs

Germs Chords & Tabs

Version: 1 Type: Tab 0 ratings
1 star 2 stars 3 stars 4 stars 5 stars
comments

Forming Tab

-----------------------------------------------------------------------------
     FORMING - Germs          
-----------------------------------------------------------------------------
By: SKA_MAN

  Part 1-Listen to CD for strumming
[ Tab from: http://www.guitartabs.cc/tabs/g/germs/forming_tab.html ]
e|-----------------------------------|
B|-----------------------------------|
G|-----------------------------------|
D|---9---7---9--7----9---7---5---7---|
A|---9---7---9--7----9---7---5---7---|
E|---7---5---7--5----7---5---3---5---|


 Part 2-listen to CD for strumming

e|----------------------------------------|
B|----------------------------------------|
G|----------------------------------------|
D|--9---5----7----9----9---5-----7-----9--|
A|--9---5----7----9----9---5-----7-----9--|
E|--7---3----5----7----7---3-----5-----7--|


Part 1
Part2
Part1
Part2
Part1
Part2

ect......
----------------------------------------------------------------------------
Comments