Germs - Circle One Chords & Tabs

 

Circle One Chords & Tabs

Germs Chords & Tabs

Version: 1 Type: Tab 0 ratings
1 star 2 stars 3 stars 4 stars 5 stars
comments

Circle One Tab

   
 Band:germs
 year:1977
 record:(MIA) Anthology

                   --------------CIRCLE ONE---------------

~=ring /=slide-up \=slide down h=hammer on
VERSE 1
E|-----------------------|---------|
A|3333-5-7~--------------|5-7-4-6--|
D|5555-7-9- repeat3x then|7-9-6-8--|(repeat all 3x)
G|5555-7-9---------------|7-9-6-8--|
B|-----------------------|---------|
E|-----------------------|---------|

CHORUS
E|9-9-9-------|
A|7-7-7-999-7-|
D|7-7-7-777-5~|reapeat 3x
G|------777-5-|
B|------------|
E|------------|
[ Tab from: http://www.guitartabs.cc/tabs/g/germs/circle_one_tab.html ]
CHORUS EXIT
E|-----------------------------------------------|
A|9----------------------------------------------|
D|7----------------------------------------------|
G|7-12/13\12/13\12/14\13/14\13/15\14/15\14/16\15/|
B|-----------------------------------------------|
E|-----------------------------------------------|

E|------------------------|
A|------------------------|
D|------------------------|
G|16\15/17\16/17\16/18~~~~|
B|------------------------|
E|------------------------|

BRIDGE 1
E|----------|
A|9/11--9/11|
D|9/11--9/11|
G|9/11--9/11|
B|----------|
E|----------|

BRIDGE 2
E|------9h10h11--------9h10h11-----------9h10h11----------------|
A|10-12--------12-10-12-------------10-12-------12-5-7-4-6-5----|
D|-------------12-------------/10/4-------------12-7-9-6-8-7----|
G|-------------12-------------------------------12-7-9-6-8-7----|
B|--------------------------------------------------------------|
E|--------------------------------------------------------------|
The orders not that hard you can figure it
email me at one100donuts@hotmail.com
thanks!
Comments