Germs - Circle One Chords & Tabs

 

Circle One Chords & Tabs

Germs Chords & Tabs

Version: 2 Type: Bass Tab 0 ratings
1 star 2 stars 3 stars 4 stars 5 stars
comments

Circle One Bass Tab

CIRCLE ONE
The Germs

By:Weird Johenson

Verse-Part one
G|--------------------------------------------------------------------|
D|--------------------------------------------------------------------|
A|----------------------9--9--9--9------------------------------------|
E|--5--5--5--5--5--7-7------------------------------------------------|

Verse-Part two
G|--------------------------------------------------------------------|
D|--------------------------------------------------------------------|
A|---5--7--3--5-------------------------------------------------------|
E|---------------5--x--5--x--5----------------------------------------|
[ Tab from: http://www.guitartabs.cc/tabs/g/germs/circle_one_btab_ver_2.html ]
Chorus
G|--------------------------------------------------------------------|
D|--------------------------------------------------------------------|
A|-----------------5--5--3--3--3--------------------------------------|
E|--5--5--5--5--5-----------------------------------------------------|

Leads
G|--------------------------------------------------------------------|
D|--------------------------------------------------------------------|
A|--------3-------3-------3-------3-----------------------------------|
E|--3-3-3---3-3-3---3-3-3---3-3-3-------------------------------------|

Play...(I will call playing verse part 1 three times and then verse part two
once verse riff)
Verse Riff 3 times
Play Chorus 3 times 
Lead
Verse Riff 3 times
Chorus 3 times
Lead
Verse Riff 3 times
Chorus 3 times
Lead
Verse Riff once
...then it is over
Comments