Gerard Ruiter - Solo Chords & Tabs

 

Solo Chords & Tabs

Gerard Ruiter Chords & Tabs

Version: 1 Type: Tab 0 ratings
1 star 2 stars 3 stars 4 stars 5 stars
comments

Solo Tab

#----------------------------------PLEASE NOTE--------------------------------#
#This file is the author's own work and represents their interpretation of the#
#song. You may only use this file for private study, scholarship, or research.#
#-----------------------------------------------------------------------------#
#-- File created with Instab - http://www.pconline.com/~smcarey/instab.html --#
#-----------------------------------------------------------------------------#

Author/Artist: Gerard Ruiter
Title: Solo
Album: The best of Ruiter
Transcribed by: Gerard Ruiter
Email: gerard_rulezzz@hotmail.com

I download Instab and this is my first own made solo. :)
If it isn't nice: I know I didn't try it jet.

-|-9/8-------5/3------------7/6--14/15--15/16---------------------------------|
-|------9/8-------5/3--------------------------14/16--16\15---------------12--|
-|---------------------7/6-----------------------------------17-16-14/15------|
-|----------------------------------------------------------------------------|
-|----------------------------------------------------------------------------|
-|----------------------------------------------------------------------------|

[ Tab from: http://www.guitartabs.cc/tabs/g/gerard_ruiter/solo_tab.html ]
-|12-14/15-------------------------------16/14--15----------------17--19/18---|
-|----------16/19--------------------14------------13/14\12-------------------|
-|----------------19-17\16-15/14-12---------------------------13--------------|
-|----------------------------------------------------------------------------|
-|----------------------------------------------------------------------------|
-|----------------------------------------------------------------------------|


-|-13/15-12-12-12-12---------19-------------16-19-19-16-17-------16\12-----8--|
-|--------------------14/18-----18-------19----------------18\17--------10----|
-|---------------------------------17-17--------------------------------------|
-|----------------------------------------------------------------------------|
-|----------------------------------------------------------------------------|
-|----------------------------------------------------------------------------|


-|-9\8-------5\3------------3\1-1-------------17-16-14------------------------|
-|------9\8-------5\3-------------4---------------------16-----------9\8------|
-|---------------------7\6-----------3---------------------13\3-1/2-----------|
-|-------------------------------------5--------------------------------------|
-|----------------------------------------------------------------------------|
-|---------------------------------------15-----------------------------------|


-|-9\8-------5\3------------3-3-2-1-2/3-1-------------------------------------|
-|------9\8-------5\3---------------------------------------------------------|
-|---------------------7\6----------------------------------------------------|
-|----------------------------------------------------------------------------|
-|----------------------------------------------------------------------------|
-|----------------------------------------------------------------------------|
Comments