Georges Brassens - Les Copains Dabord Chords & Tabs

 

Les Copains Dabord Chords & Tabs

Georges Brassens Chords & Tabs

Version: 1 Type: Tab 0 ratings
1 star 2 stars 3 stars 4 stars 5 stars
comments

Les Copains Dabord Tab

   
#----------------------------------PLEASE NOTE---------------------------------#
#This file is the author's own work and represents their interpretation of the #
#song. You may only use this file for private study, scholarship, or research. #
#------------------------------------------------------------------------------##
From: dcr@world-net.sct.fr (Didier CROS)
Subject: CRD + TAB (Intro) / LES COPAINS D'ABORD (Georges BRASSENS)


LES COPAINS D'ABORD
Georges BRASSENS (Words and Music)

I tried to tab the intro as well as I could ...
Please post any comments, flames, questions or requests to :
dcr@world-net.sct.fr

INTRO
=3D=3D=3D=3D=3D=3D
        [F]                        [G7]                           =20
e--------------------------0-2-3-2-0-----------------------------|
B------------------------------------3-0-------------------------|
G----0-2-4-2-0-2-4-2-0-2-4---------------2---2---2-0-4-2-0-------|
D--4---------------------------------------2---2-----------2-----|
A----------------------------------------------------------------|
E----------------------------------------------------------------|

          [Bb]                              [A]       [A7]=20
e----------------------------------------------------------------|
B----------------------------------------------------------------|
G--2-3-4-5-5-4-5-2-5-4-2-1-4-4-3-2-5-4-2-0-----4-2---------------|
D------------------------------------------2-1-----2-4-5---------|
A----------------------------------------------------------------|
E----------------------------------------------------------------|
[ Tab from: http://www.guitartabs.cc/tabs/g/georges_brassens/les_copains_dabord_tab.html ]
LYRICS AND CHORDS
=3D=3D=3D=3D=3D=3D=3D=3D=3D=3D=3D=3D=3D=3D=3D=3D=3D=3D
1.
           [D]
Non ce n=92etait pas le radeau
[D]
de la meduse ce bateau
              [E7]
qu=92on se le dise au fond des ports
[E7]
dise au fond des ports
         [G]   =20
il naviguait en pere peinard
             [F#]        [F#7]
sur la grand-mare des canards
              [Bm]          [E7]
et s=92app=92lait les copains d=92abord
       [A7]     [D]
les copains d=92abord.

2.
Ses fluctuat nec mergitur
c=92etait pas d=92la litterature
n=92en deplaise aux jeteurs de sorts
aux jeteurs de sort
Son capitaine et ses mat=92lots
n=92etaient pas des enfants d=92salauds
mais des amis franco de port
des copains d=92abord

3.
C=92etaient pas des amis de luxe
des petits castor et pollux
des gens de sodome et gomorrhe
sodome et gomorrhe
c=92etaient pas des amis choisis
par montaigne et la boetie
sur le ventre ils se tapaient fort
les copains d=92abord

4.
C=92etaient pas des anges non plus
l=92evangile ils l=92avaient pas lu
mais il s=92aimaient tout=92 voiles dehors
toutes voiles dehors
jean, pierre, paul et compagnie
c=92etait leur seule litanie
leur credo, leur confiteor
aux copains d=92abord

5.
Au moindre coup de trafalgar
c=92est l=92amitie qui prenait l=92quart
c=92est elle qui leur montrait le nord
leur montrait le nord
et quand ils etaient en detresse
qu=92leurs bras lancaient des SOS
on aurait dit des semaphores
les copains d=92abord

6.
Au rendez-vous des bons copains
y=92avait pas souvent de lapins
quand l=92un d=92entre eux manquait a bord
c=92est qu=92il etait mort
Oui mais jamais, au grand jamais
son trou dans l=92eau ne s=92refermait
cent ans apres coquin de sort
il manquait encore

7. (2x, 2nd time in F like the intro)
Des bateaux j=92en ai pris beaucoup
mais le seul qu=92ai tenu le coup
qui n=92ai jamais vire de bord
mais vire de bord
naviguait en pere peinard
sur la grand-mare des canards
et s=92app=92lait les copains d=92abord
les copains d=92abord.

END
=3D=3D=3D=3D

           A7        D       C7
... les copains d=92abord.
--------------------
    Didier CROS
dcr@world-net.sct.fr
--------------------
////
=B0|=B0 Be Seeing You !
 ~
--------------------
Comments