George Michael - Careless Whisper Chords & Tabs

 

Careless Whisper Chords & Tabs

George Michael Chords & Tabs

Version: 1 Type: Tab 0 ratings
1 star 2 stars 3 stars 4 stars 5 stars
comments

Careless Whisper Tab

   
-------------------------------------------------------------------------------
			     Careless Whisper Sax Solo - George Michael
-------------------------------------------------------------------------------
Tabbed by:BigJim	
Email:jimaltby86@hotmail.com

Tuning:EADGBe

I saw there was no tab for the solo, and seeing as its a wicked solo, here goes...

e|------8-10-12-10------------12|(12)-10-----------|8--------------------8-|
B|10-12------------10-(10)------|--------10-(10)---|--12-------------------|
G|-------------------------10---|----------------10|-----10-(10)-----------|
D|------------------------------|------------------|-------------12-(12)---|
A|------------------------------|------------------|-----------------------|
E|------------------------------|------------------|-----------------------|
[ Tab from: http://www.guitartabs.cc/tabs/g/george_michael/careless_whisper_tab.html ]
e|(8)-----------|-----------------------|----------------------------------|
B|----12--------|12-10------------------|----------------------------------|
G|-------10-(10)|------10-(10)----------|----------------------------------|
D|--------------|--------------12-(12)-9|(9)-------------------------------|
A|--------------|-----------------------|----------------------------------|
E|--------------|-----------------------|----------------------------------|

e|-------------------------------------------------------------------------|
B|-------------------10----------------------------------------------------|
G|-----------9-10-12-------------------------------------------------------|
D|---9-10-12---------------------------------------------------------------|
A|12-----------------------------------------------------------------------|
E|-------------------------------------------------------------------------|

All notes should be left to ring to re-create the sax sound. Hope it sounds ok.
BigJim.


| /  slide up
| \  slide down
| h  hammer-on
| p  pull-off
| ~  vibrato
| +  harmonic
| x  Mute note
===============================================================================
Comments