George Lynch - I Will Remember Chords & Tabs

 

I Will Remember Chords & Tabs

George Lynch Chords & Tabs

Version: 1 Type: Tab 0 ratings
1 star 2 stars 3 stars 4 stars 5 stars
comments

I Will Remember Tab

   
Em
0 2 2 0 0 0 G5
3 x 0 0 3 3 D5
x x 0 2 3 x E5
0 2 2 4 5 0 
D5/A
x 0 0 2 3 x C5/G
3 3 5 5 x x C5/G(type 2)
3 3 5 5 x x E5(type 2)
0 2 2 x x x 
B
x 2 4 4 4 x D/F#
2 0 0 2 3 2 D
x x 0 2 3 2 F5
1 3 3 x x x 
Am
x 0 2 2 1 0 C
x 3 2 0 1 0 Bb5
x 1 0 0 3 x 


Gtr I (E A D G B E) - 'guitar1'
Gtr II (E A D G B E) - 'guit2'
Gtr III (E A D G B E) - 'guitar3'
Gtr IV (E A D G B E) - 'rythm dist.'
Gtr V (E A D G B E) - 'dist lead'
Gtr VI (E A D G B E) - 'guitar solo2'


 Intro
  Moderately Slow Rock Q=110
  Em
 4/4
  Gtr I
  Q  E E +E E E E   Q  E E +E E E E   Q  E E +E E E E   Q  E E +E E E E
  |  | |  | | | |   |  | |  | | | |   |  | |  | | | |   |  | |  | | | |
  /  / /  / / / /   /  / /  / / / /   /  / /  / / / /   /  / /  / / / /

  Gtr II
  W                 W                 W                 W
|-----------------|-----------------|-----------------|------------------|
|-----------------|-----------------|-----------------|------------------|
|-----------------|-----------------|-----------------|------------------|
|-----------------|-----------------|-----------------|------------------|
|-----------------|-----------------|-----------------|------------------|
|-----------------|-----------------|-----------------|------------------|


  Em
 4/4
  Q   E  E  +E E   E   E     Q  E E +E E E   E
  |   |  |   | |   |   |     |  | |  | | |   |
  /   /  /   / /   /   /     /  / /  / / /   /

  Gtr II
                   |--3--|
  E E E +E   Q   A E E   E   Q  H        S S E
|--------------------------|----7--------7h8p7-|
|--------------------5h==7s|=8-----------------|
|-4s5s4-(4)------2S4-------|-------------------|
|--------------------------|-------------------|
|--------------------------|-------------------|
|--------------------------|-------------------|


   Q         E   E +E E E   E    Q                E  E  +E   E   E E
   |         |   |  | | |   |    |                |  |   |   |   | |
   /         /   /  / / /   /    /                /  /   /   /   / /

       \0.5/                         \0.5/  \0.5/
                                                         |--3--|
  +S  +E.    S S E  Q   S S E   +S  +S     +Q       +E   E E   E E E
|-(7)-(7)----5h7p5------3h5p3-|-(3)-(3)----(3)------(3)--2h3p==2s0-----|
|-----------------------------|------------------------------------0---|
|-----------------------------|----------------------------------------|
|-----------------------------|----------------------------------------|
|-----------------------------|----------------------------------------|
|-----------------------------|----------------------------------------|


  Em                             G5
    Q   E E +E E E        E       Q      E   E   +E   E  E           E
    |   | |  | | |        |       |      |   |    |   |  |           |
    /   / /  / / /        /       /      /   /    /   /  /           /

    ~~                                       ~~~~~
                                                         |--3--|
  a H.           S  T  t  S  S    Q.        +E   +E   E  S  S  S  a  E
|------------------------12-14-|-14b15=====(14)r(14)-14-12h14p12-10s12s|
|-3s5-----------------12-------|---------------------------------------|
|------------------12----------|---------------------------------------|
|------------------------------|---------------------------------------|
|------------------------------|---------------------------------------|
|------------------------------|---------------------------------------|


  F5                              Em
   Q  E E  +E     E     E  E       Q   E E +E E E E
   |  | |   |     |     |  |       |   | |  | | | |
   /  / /   /     /     /  /       /   / /  / / / /

   ~~
            |---3----|
   H       +E   E    E  E  S  S    H.           Q
|-10------(10)-12------10-------|---------------------|
|-------------------12----10s12-|-12------------------|
|-------------------------------|---------------------|
|-------------------------------|---------------------|
|-------------------------------|---------------------|
|-------------------------------|---------------------|


  Em                            Em
  Q   E E +E E E  E               Q   E E  +E     E E E
  |   | |  | | |  |               |   | |   |     | | |
  /   / /  / / /  /               /   / /   /     / / /

                                            \0.5/
                  |---3----|
  H.           E  S   S    S      H        +H
|-----------------------------|--14-------(14)----------|
|-------------------------15--|-(15)------(15)----------|
|--------------------17--(17)-|-(17)------(17)----------|
|----------------14-(14)-(14)-|-(14)------(14)----------|
|-----------------------------|-------------------------|
|-----------------------------|-------------------------|


  Em                          Em
    Q    E   E  +E  E  E  E     Q      E  E +E E E E
    |    |   |   |  |  |  |     |      |  |  | | | |
    /    /   /   /  /  /  /     /      /  /  / / / /

                                       ~~~
   +Q    E   E  +Q     E  E    +E   E  H.
|-(14)----------------------|---------19-------------|
|-(15)-------(7)---15s17-|-(17)-------------------|
|-(17)-------------------|------16----------------|
|-(14)----------------------|------------------------|
|---------------------------|------------------------|
|---------------------------|------------------------|


  Em                      F5
    Q   E E +E  E  E  E    Q   E  E      +E        E  E E
    |   | |  |  |  |  |    |   |  |       |        |  | |
    /   / /  /  /  /  /    /   /  /       /        /  / /

    ~~~~                   ~~~
                                  |----3-----|
   +H        E  E  E  E    Q.     E  +E      E  A  Q.
|-(19)------------------|---------------------------------|
|--------------15s13-12-|-12-----12-(12)h===13-13s15------|
|--------------16s14-12-|-12-----12-(12)h===14-14s16------|
|-----------------------|---------------------------------|
|-----------------------|---------------------------------|
|-----------------------|---------------------------------|


  G5                        Em                       Em
   Q   E  E  +E   E  E  E   Q       E   E +E E E E   Q   E   E +E   E E E
   |   |  |   |   |  |  |   |       |   |  | | | |   |   |   |  |   | | |
   /   /  /   /   /  /  /   /       /   /  / / / /   /   /   /  /   / / /

   Q.     E  +E   E  Q      S  E S +E   E  Q   E E   E E E A E  E A E E E
|-------------------------|----------------0---3p2-|-0---0------0---------|
|-10-----10-(10)-12-13\---|-8s10-8-(8)-------------|----------------------|
|-10-----10-(10)-12-14\---|-9s11-9-(9)-!9----------|---2---2s4----4s5s4-2-|
|-------------------------|------------!9----------|----------------------|
|-------------------------|------------------------|----------------------|
|-------------------------|------------------------|----------------------|


  Am
  Gtr IV
  W                    W
  Gtr II
  H       E E E  E    +Q.     E  E   E  E  E
|-------------------|---------------------15-|
|----------------5--|-(5)-----------12s13----|
|-2-------2s4s5-(5)-|-(5)-------14-----------|
|-------------------|------------------------|
|-------------------|------------------------|
|-------------------|------------------------|
|
| Gtr III
| E E E E E E E  E     E  E E E +E   E  E  E
|-------------------|---------0-(0)----------|
|-------5-5s3-------|-------1--------1-------|
|-----0-------------|------------------------|
|---4---------5s=4--|--2--2-------------0----|
|-0-----------------|--0-------------------2-|
|-------------------|------------------------|


  C                                                      D5  E5
    W                             H.                E    S   S
                                                         |   |
                                                         /   /

         \0.5/
                                                    |--3---|
   +E   +E      +H.               E  E  E  E  E  E  E  E   E
|-(15)-(15)----(15)------------|-15p12s10-12--------------------|
|------------------------------|-15p12s10-12s10p=8-15-12--------|
|------------------------------|-------------------14-12S==9----|
|------------------------------|--------------------------------|
|------------------------------|--------------------------------|
|------------------------------|--------------------------------|
|
|   E    E       E  E +E  E Q     E  E  E  E +E  E  E    E
|---------------------------0--|--------------------------------|
|-------------------1-(1)-3----|-----------3-(3)----------------|
|----------------0-------------|--------0-----------------------|
|--------2---------------------|-----0--------------------------|
|---3--------------------------|--1--------------1--------------|
|------------------------------|--------------------3----2------|


  E5            D5  D5/A
  Gtr I
  W                  W
  Gtr V
                              |-3--|
  Q  E E +E  Q  E   +E  Q  E +Q  Q Q
|-0----------3--2-|-(2)----------0-2p====|
|-8----5-(5)------|-----3----------------|
|-9--4------------|--------2-(2)---------|
|-----------------|----------------------|
|-----------------|----------------------|
|-----------------|----------------------|
|
| Gtr IV
| Q  E H        E    Q.    H         S S
|-0----0----------|--2-------------------|
|-0----0--------3-|--3-----3---------3---|
|-0-------------2-|--2-----2---------2p0-|
|-2-------------0-|--0-----0-------------|
|-2--2----------0-|--0-----0-------------|
|-0--0------------|----------------------|


  C5/G             F5
  W                W
  Q   E H    S S   Q.   T T T T Q.   S S
|-0--------------|-----------------------|
|-----1----------|-----------------------|
|-------0--------|-----------------------|
|------------0-2-|-3----2h3p2p0----------|
|----------------|--------------3----2-0-|
|----------------|-----------------------|
|
| Q.    H    S S   Q.   T T T T Q.   S S
|-0-----0--------|-----------------------|
|-3-----3--------|-1---------------------|
|-0-----0--------|-2------------0--------|
|------------0-2-|-3----2h3p2p0----------|
|-3-----3--------|--------------3----2-0-|
|----------------|-----------------------|


  Em
 4/4
  Gtr I
  Q   E    E +E    E     E        E        W
  |   |    |  |    |     |        |        |
  /   /    /  /    /     /        /        /

  Gtr II
           ~~~~~~~                                   ~~~~~~~       ~
                   |-3-|          |-3-|                      |-3-|
  Q  +S  S E +S  S S S S S    +S  S S S    Q   +S  S E +S  S S S S Q
|---------------------------------------|-----------------------------|
|---------------------------------------|-----------------------------|
|----------9-(9)p7----------------------|------------9-(9)p7----------|
|------------------9s7p5h7b8==(7)r7p5---|--------------------9s7p5-7--|
|--------7----------------------------7-|----------7------------------|
|-0--(0)-0------------------------------|--0---(0)-0------------------|
|
| Gtr IV
| W                                       +H.                      Q
|---------------------------------------|-----------------------------|
|-0-------------------------------------|-(0)-------------------------|
|---------------------------------------|-----------------------------|
|-2-------------------------------------|-(2)-------------------------|
|-2-------------------------------------|-(2)-------------------------|
|-0-------------------------------------|-(0)-------------------------|


 Guitar Solo 1
  Moderately Slow Rock Q=110
  Em
 4/4
  Gtr I
  Q  E E +E     E    E     E       Q   E     E      +E  E  E   E
  |  | |  |     |    |     |       |   |     |       |  |  |   |
  /  / /  /     /    /     /       /   /     /       /  /  /   /

  Gtr V
                                   ~~~
                                             |-3--|        |--3--|
  H       S  S  S S  S  S  S  S    Q.     a  S  S S +Q     E E   E
|-------------------------------|----------------------------------|
|----------------------13-10h13p|=12-----10h12-10-8-(8)h==10-----8s|
|---------9h11h12p0-12----------|----------------------------------|
|-------------------------------|----------------------------------|
|-------------------------------|----------------------------------|
|-------------------------------|----------------------------------|


  Q  E    E  +E  E        E E
  |  |    |   |  |        | |
  /  /    /   /  /        / /

                   \0.5/
  Q  E A  E  +E  E A      E S  A  S
|------------------------------------|
|-7--8-8h10-(10)p8-------------------|
|------------------9s====11p9--------|
|-----------------------------12s14--|
|------------------------------------|
|------------------------------------|


    Q      E E +E  E  E  E
    |      | |  |  |  |  |
    /      / /  /  /  /  /

        ~~~
   +E   Q.      E  E  E  E
|--------------------------|
|-----------------15p13s12-|
|--------------------------|
|-(14)---------------------|
|------14------------------|
|--------------------------|


  G5                             F5
   Q   E  E  +E   E     E E       Q     E E +E E E  E
   |   |  |   |   |     | |       |     | |  | | |  |
   /   /  /   /   /     / /       /     / /  / / /  /

   ~~~                               ~~~
   Q.     E  +E   E  A  q      A  E  Q.      E E E  E
|---------------------------|-------------------------|
|-12-----12-(12)s13-13s15---|-10s12s10------10p8-8s10-|
|-12-----12-(12)s14-14s16---|-10s12s10------10s9-9s11-|
|---------------------------|-------------------------|
|---------------------------|-------------------------|
|---------------------------|-------------------------|


  Em
     Q    E E +E E E E    Q      E E +E E E E
     |    | |  | | | |    |      | |  | | | |
     /    / /  / / / /    /      / /  / / / /

                          \0.5/
                          ~~~~~~
  A  E Q.      Q   E E   +W
|----------------------|----------------------|
|-8S10S8---------------|----------------------|
|-9s11s9-----------7s9-|-(9)------------------|
|------------------7s9-|-(9)------------------|
|----------------------|----------------------|
|----------------------|----------------------|


    Am
  Q        E  E +E E  E        E     Q               E E +E E  E  E
  |        |  |  | |  |        |     |               | |  | |  |  |
  /        /  /  / /  /        /     /               / /  / /  /  /

                                     ~~~~            ~~
                      |--3--|
  E  A  E  E  E  Q    S  S  S  E    +E   T  T  T  T  H         E  E
|--------------------------------|------------------------------------|
|---------------17---15h17p15s13-|-(13)-13-15-13-15-13--------13\-----|
|---12s14h16s17------------------|------------------------------------|
|--------------------------------|------------------------------------|
|--------------------------------|------------------------------------|
|--------------------------------|------------------------------------|


  C
  Q  E E +E     E     E     E       Q   E  E +E  E E  E
  |  | |  |     |     |     |       |   |  |  |  | |  |
  /  / /  /     /     /     /       /   /  /  /  / /  /

                                                      ~~
  H       S  S  S  S  S  S  S  S    Q.     Q     Q    E
|--------------------------17-20s|=22-----20----19---24---|
|--------------------17h18-------|------------------------|
|-----------------17-------------|------------------------|
|--------------19----------------|------------------------|
|-----------20-------------------|------------------------|
|--------------------------------|------------------------|
|
| Gtr IV
| W                                 H         Q    E  S S
|--------------------------------|------------------------|
|--------------------------------|------------------------|
|--------------------------------|--------------------7-9-|
|--------------------------------|--------------------7-9-|
|--------------------------------|--------------------5-7-|
|--------------------------------|------------------------|


 Chorus
  E5               D5  D5/A
  Gtr I
    W                   W
  Gtr V
    ~~~~
                                 |-3--|
   +Q   E E +E  Q  E   +E  Q  E +Q  Q Q
|-(24)----------3--2-|-(2)----------0-2p====|
|---------5-(5)------|-----3----------------|
|-------4------------|--------2-(2)---------|
|--------------------|----------------------|
|--------------------|----------------------|
|--------------------|----------------------|
|
| Gtr IV
|   Q   E H        E    Q.    H         S S
|---0-----0----------|--2-------------------|
|---0-----0--------3-|--3-----3---------3---|
|---0--------------2-|--2-----2---------2p0-|
|---2--------------0-|--0-----0-------------|
|---2---2----------0-|--0-----0-------------|
|---0---0------------|----------------------|


  C5/G             F5
  W                W
  Q   E H    S S   Q.   T T T T Q.   T T T T
|-0--------------|----------------------------|
|-----1----------|----------------------------|
|-------0--------|----------------------------|
|------------0-2-|-3----2h3p2p0---------------|
|----------------|--------------3----2-3-2-0--|
|----------------|----------------------------|
|
| Q.    H    S S   Q.   T T T T Q.   S   S
|-0-----0--------|----------------------------|
|-3-----3--------|-1--------------------------|
|-0-----0--------|-2------------0-------------|
|------------0-2-|-3----2h3p2p0---------------|
|-3-----3--------|--------------3----2---0----|
|----------------|----------------------------|


  E5            D5  D5/A
  Gtr I
  W                 W
  Gtr V
                             |-3--|
  Q  E E +E  Q  E   E  Q  E +Q  Q Q
|------------3--5-|-2-----------0-2p====|
|------5-(5)------|----3----------------|
|----4------------|-------2-(2)---------|
|-----------------|---------------------|
|-----------------|---------------------|
|-0---------------|---------------------|
|
| Gtr IV
| Q  E H        E   Q.    H         S S
|-0----0----------|-2-------------------|
|-0----0--------3-|-3-----3---------3---|
|-0-------------2-|-2-----2---------2p0-|
|-2-------------0-|-0-----0-------------|
|-2--2----------0-|-0-----0-------------|
|-0--0------------|---------------------|


  C5/G             F5
  W                W
  Q   E H    S S   Q.   T T T T Q.   T T T T
|-0--------------|----------------------------|
|-----1----------|----------------------------|
|-------0--------|----------------------------|
|------------0-2-|-3----2h3p2p0---------------|
|----------------|--------------3----2-3-2-0--|
|----------------|----------------------------|
|
| Q.    H    S S   Q.   T T T T Q.   S   S
|-0-----0--------|----------------------------|
|-3-----3--------|-1--------------------------|
|-0-----0--------|-2------------0-------------|
|------------0-2-|-3----2h3p2p0---------------|
|-3-----3--------|--------------3----2---0----|
|----------------|----------------------------|


  Em
 4/4
  Gtr I
  Q   E    E +E    E     E        E        Q    E    E +E    E     E E
  |   |    |  |    |     |        |        |    |    |  |    |     | |
  /   /    /  /    /     /        /        /    /    /  /    /     / /

  Gtr II
           ~~~~~~~                                   ~~~~~~~       ~
                   |-3-|          |-3-|                      |-3-|
  Q  +S  S E +S  S S S S S    +S  S S S    Q   +S  S E +S  S S S S Q
|---------------------------------------|------------------------------|
|---------------------------------------|------------------------------|
|----------9-(9)p7----------------------|------------9-(9)p7-----------|
|------------------9s7p5h7b8==(7)r7p5---|--------------------9s7p5-7---|
|--------7----------------------------7-|----------7-------------------|
|-0--(0)-0------------------------------|--0---(0)-0-------------------|
|
| Gtr IV
| W                                       +W
|---------------------------------------|------------------------------|
|-0-------------------------------------|-(0)--------------------------|
|---------------------------------------|------------------------------|
|-2-------------------------------------|-(2)--------------------------|
|-2-------------------------------------|-(2)--------------------------|
|-0-------------------------------------|-(0)--------------------------|


  Em
 4/4
  Gtr I
  Q   E    E +E    E     E        E        W
  |   |    |  |    |     |        |        |
  /   /    /  /    /     /        /        /

  Gtr II
           ~~~~~~~
                   |-3-|          |-3-|
  Q  +S  S E +S  S S S S S    +S  S S S    E   E   H.
|---------------------------------------|-------------------|
|---------------------------------------|-------------------|
|----------9-(9)p7----------------------|----------0--------|
|------------------9s7p5h7b8==(7)r7p5---|------4--(4)-------|
|--------7----------------------------7-|-------------------|
|-0--(0)-0------------------------------|--0--(0)-(0)-------|
|
| Gtr IV
| W                                       +H.            Q
|---------------------------------------|-------------------|
|-0-------------------------------------|-(0)---------------|
|---------------------------------------|-------------------|
|-2-------------------------------------|-(2)---------------|
|-2-------------------------------------|-(2)---------------|
|-0-------------------------------------|-(0)---------------|


 Guitar Solo 2
  Em
  Gtr V
   |----3----|  |-----3------|  |------3-------|  |------3-------|
   S S S S S S  S S  S  S  S S  S  S  S  S  S  S  S  S  S  S  S  S
|-12p7-------7-12p8s12-15p12-0-------12-15s19p15-19p15----------15-|
|------8---8-----------------0----12-------------------17----17----|
|--------9---------------------12-------------------------16-------|
|------------------------------------------------------------------|
|------------------------------------------------------------------|
|------------------------------------------------------------------|
|
| Gtr I
|  Q.                   Q                E        E        E
|--0--------------------0----------------0-------------------------|
|--0--------------------0----------------0-------------------------|
|--0--------------------0-------------------------0----------------|
|--2--------------------2----------------------------------2-------|
|--2--------------------2----------------------------------2-------|
|--0--------------------0----------------------------------0-------|

[ Tab from: http://www.guitartabs.cc/tabs/g/george_lynch/i_will_remember_tab.html ]
                      ~~~~~~~
   |--------3---------|                  |---3---|
   S  S  S  +S   +X   E  +Q    E    e    E  S    T  T  T  T
|-19s20s19-(19)-(19)-19-(19)---x----------------------------|
|------------------------------x---24---22s24s==22p20-------|
|------------------------------x----------------------21p19-|
|-----------------------------------------------------------|
|-----------------------------------------------------------|
|-----------------------------------------------------------|
|
|  Q.                        Q   E    E       E
|--0-------------------------0------------------------------|
|--0-------------------------0---0--------------------------|
|--0----------------------------------0---------------------|
|--2------------------------------------------0-------------|
|--2--------------------------------------------------------|
|--0--------------------------------------------------------|


  Am
                                                             ~~~~~~~
                              |-------3-------|
   Q..       T  T  a  Q    E  T  T  T  T  T  +T     E  E  E  E  +Q     E  E
|------------------------------------------------|--------------------------|
|-22--------20h22-20s19---20-19-17----19-17-(17)-|--------------------------|
|----------------------------------17------------|-19s21-21-----------------|
|------------------------------------------------|----------21-(21)---21\---|
|------------------------------------------------|--------------------------|
|------------------------------------------------|--------------------------|
|
|  Q    E Q             E  E  E                     Q     E  Q      E  E  E
|---------0--------------------------------------|-----------0--------------|
|---------1-------------1------------------------|------------------1-------|
|-------2------------------2---------------------|--2------------------0----|
|-------2----------------------------------------|--2-----------------------|
|--0--------------------------0------------------|--0-----0---------------2-|
|------------------------------------------------|--------------------------|


  C
                            \0.5     \0.5/
           ~~~~~~~
    E.     S  +H        +S  s     a  E
|------------------------------------------|
|---------24-(24)------(24)p0----22s24-----|
|-[23]b24----------------------------------|
|------------------------------------------|
|------------------------------------------|
|------------------------------------------|
|
|   Q          E  Q  E   Q
|------------------------0-----------------|
|-----------------1--3---------------------|
|-----------------0------------------------|
|--------------2---------------------------|
|---3--------------------------------------|
|------------------------------------------|


  Bb5
             \0.5/
                        ~~~~~~~~         ~~
   E  S  S  +S      S  +E   +Q     A  E  E
|------------------------------------------|
|-20p19h20-(20)----22-(22)-(22)---22s24-20-|
|------------------------------------------|
|------------------------------------------|
|------------------------------------------|
|------------------------------------------|
|
|  Q         E          Q       E     E  E
|------------------------------------------|
|-----------------------3------------------|
|-----------------------0-------0----------|
|------------0------------------0----------|
|--1---------------------------------------|
|-------------------------------------3--2-|


  Em
    ~~~~ T  T
   +Q    a  T  T  T  T  a  E  S  S  S  S  E  T  T  T  X  X
|----------------------------------------------------------|
|-(20)--22S24p20-------------------------------------------|
|----------------23p21-21s16-16s19s14-15s12-11h12p11h12p11-|
|----------------------------------------------------------|
|----------------------------------------------------------|
|----------------------------------------------------------|
|
| Gtr I
|   Q       E              Q        E     E  E
|--------------------------0-------------------------------|
|-----------------------------------0----------------------|
|-----------------------------------------0----------------|
|-----------2--------------------------------0-------------|
|---2------------------------------------------------------|
|---0------------------------------------------------------|


                                             \2
   |--3--|  |-----3-----|  |--3---|
   S  S  S  T  T T  T T T  S  S   S S     S +Q       S  S  E
|---------------------------------------------------17-17s19-|
|------------------------------------------------------------|
|------------------------------------------------------------|
|-14p12s10-12p10s9-10p9s7------------------------------------|
|-------------------------12p10s==7--------------------------|
|-----------------------------------3b3.5-0-(0)--------------|
|
|  E.               S      S    S   Q           S S  E     E
|-------------------0---------------0------------------------|
|-------------------0---------------0-----------0------------|
|-------------------------------------------------0----------|
|----------------------------------------------------2-------|
|----------------------------------------------------------2-|
|--0----------------------------0----------------------------|


  Em
  Gtr I
    Q          E  E +E    E     E        E
    |          |  |  |    |     |        |
    /          /  /  /    /     /        /

  Gtr V
           ~~~~~~~
                     |---3---|  |---------3---------|
   +E   S  S  +Q     E  E    E  S  S  S  S  S      +S
|-(19)-15-----------15p14s==12----12-------------------|
|---------17-(17)--------------15----15-12-------------|
|------------------------------------------14b16==(14)r|
|------------------------------------------------------|
|------------------------------------------------------|
|------------------------------------------------------|


    Q            E     E     +E  E E E
    |            |     |      |  | | |
    /            /     /      /  / / /

                              ~~~~
   +S   S  S  S  S  S  S  S  +H
|--------------------------------------|
|--------------------------------------|
|-(14)p12------------------------------|
|---------14p12------------------------|
|---------------14s12p10h12-(12)-------|
|--------------------------------------|


  Am
   Q     E  E +E  E  E  E
   |     |  |  |  |  |  |
   /     /  /  /  /  /  /

                                              \0.5/
                              T        T      T
   |--------3--------|  |-----3-----|
   S  S  S  S  S  T  T  S  E  S  S  S  S  E.  E      S  S
|----------------12h15p12s15-19p17p15-19p15--19p====17p15-|
|----------12h13------------------------------------------|
|-------12------------------------------------------------|
|----14---------------------------------------------------|
|-15------------------------------------------------------|
|---------------------------------------------------------|


   Q       E  E  +E   E E E
   |       |  |   |   | | |
   /       /  /   /   / / /

   E.  S   E  E  +E   S S E E
|-15------19p17-(17)s22-x---x--|
|-----(0)---------------x---x--|
|-----------------------x---x--|
|------------------------------|
|------------------------------|
|------------------------------|


  C
   Q     E  E +E  E  E  E
   |     |  |  |  |  |  |
   /     /  /  /  /  /  /

                                                               T     T     T
   T  T  T  T  T  T  T  T  +T  T  T  T  T  T  T  T  T  S  +T   T  T  T  T  T  T  E.
|-------------12h15p14p12-(12)---------------12h15p12h14-(14)-15p14-15p14-16p12h14--|
|----------12-----------------------------12----------------------------------------|
|-------12-----------------------------12-------------------------------------------|
|----14-----------------------------14----------------------------------------------|
|-15-----------------------------15-------------------------------------------------|
|-----------------------------------------------------------------------------------|


  Bb5
    Q      E  E +E  E  E E
    |      |  |  |  |  | |
    /      /  /  /  /  / /

                                                           T
        |--3--|
   +S   T  T  T  E  T  T S  T T T X X S T T  S  T T T X X  T T T T T T
|-(14)-12h14p12s10h12p10s8h10p8s7h8p7s5h8s5----------------------------|
|-------------------------------------------12p10s8p5-5h7-10p8p7p5h7p0-|
|----------------------------------------------------------------------|
|----------------------------------------------------------------------|
|----------------------------------------------------------------------|
|----------------------------------------------------------------------|


  Em
  Q   E E +E E E E
  |   | |  | | | |
  /   / /  / / / /

                         T  T T   T               T  T T         T
                                              |-3-|  |-3-|
  X X T T  X X a T T T T T  T T T T T T T S S S S S  T T T T T T T T T
|----------------------------------------------------------------------|
|-5h7p5h7--------------------------------------------------------------|
|----------5h7p5s4h5p4-------------------------------------------------|
|----------------------7-9s10s9p7-9p7p5-5h7-0--------------------------|
|---------------------------------------------5h7h9s10s9p7p5h7p5-------|
|----------------------------------------------------------------8p7-x-|


                                    Am
  W                                  Q     E   E   +E  E E  E
  |                                  |     |   |    |  | |  |
  /                                  /     /   /    /  / /  /

     /                      \7
                                                    ~~~~
  S  E.      +Q     +Q     +E   E    S  S  S   S   +Q.      S  S  S  S  S  S
|---------------------------------|------------------------------12----------|
|---------------------------------|------------------------12h13----13p12----|
|-x-[9]b11==([9])r=([9])--([9])---|---------------------------------------14-|
|-x-------------------------------|-12h14-14-[14]-(14)-----------------------|
|-x-------------------------------|------------------------------------------|
|---------------------------------|------------------------------------------|


   Q   E  E +E  E  E  E
   |   |  |  |  |  |  |
   /   /  /  /  /  /  /

                          \1/
   Q   S  S  S  a  S  S  +S   E  E.  S
|---------------------------------------|
|-----15-15-15-------15-(15)s13-13------|
|-14-----------15s14----------------(0)-|
|---------------------------------------|
|---------------------------------------|
|---------------------------------------|


  C
   Q     E  E +E  E  E  E
   |     |  |  |  |  |  |
   /     /  /  /  /  /  /

            T           T              T     T           T  T  T                   T           T
                           |--3--|        |---3----|                                              |-----3-----|
   T  T  T  T  T  T  T  T  T  T  T  T  T  T  T  T  T  T  T  T  T  T  T  T  T  +T   T  T  T  T  T  T  T  T  T  T
|----------19p14h15h17-19s20s19p17p15----------------------------------------------------------------------------|
|-13h15h17----------------------------18p17-18p17p15-------------------------------------------------------------|
|----------------------------------------------------17-19s21s19p17p16p14----------------------------------------|
|-------------------------------------------------------------------------17-(17)-19p17p15p14-17p15p14p12h14h15--|
|----------------------------------------------------------------------------------------------------------------|
|----------------------------------------------------------------------------------------------------------------|


  Bb5
   Q     E  E +E  E  E  E
   |     |  |  |  |  |  |
   /     /  /  /  /  /  /

   S  T  T  T  T  T  T  T  T  T  T  T  T  T  T  T  T  S  T  T  S  T  T S E
|--------------------------------------------------------------------------|
|--------------------------------------------------------------------------|
|-14-16-17-19-17-16-14-----------------------------------------------------|
|----------------------17-15-17-19-15-14-17-14-17-14s12-14-12s10-12-10-9-9-|
|--------------------------------------------------------------------------|
|--------------------------------------------------------------------------|


 Chorus
  E5             D5  D5/A           C5/G(type
                               |-3--|
  A Q.    E Q  E E   +Q   E E +Q  Q Q
|--------------3-2-|-(2)----------0-2p====|
|---0-------5------|------3---------------|
|-7s9-----4--------|--------2-(2)---------|
|------------------|----------------------|
|------------------|----------------------|
|------------------|----------------------|
|
|   Gtr IV
|   Q   E H      E    Q.    H         S S
|---0-----0--------|--2-------------------|
|---0-----0------3-|--3-----3---------3---|
|---0------------2-|--2-----2---------2p0-|
|---2------------0-|--0-----0-------------|
|---2---2--------0-|--0-----0-------------|
|---0---0----------|----------------------|


    2)                F5           C
                      ~~           ~~
  Q   E E +Q.   S S   Q.   T T T T Q.   T T T T
|-0-----------------|---------------------------|
|-----1-------------|---------------------------|
|-------0-(0)-------|---------------------------|
|---------------0-2-|-3----2h3p2p0--------------|
|-------------------|--------------3----2h3p2p0-|
|-------------------|---------------------------|
|
| Q.    H       S S   Q.   T T T T Q.   S   S
|-0-----0-----------|---------------------------|
|-3-----3-----------|-1-------------------------|
|-0-----0-----------|-2------------0------------|
|---------------0-2-|-3----2h3p2p0--------------|
|-3-----3-----------|--------------3----2---0---|
|-------------------|---------------------------|


  E5              D5    D5/A          C5/G
                                 |-3--|
  Q  a E Q  E +S  E.    Q   E E +Q  Q Q       Q   E H    S S
|-----------3-(3)-5p==|=2-----------0-2-----|-0--------------|
|--------5------------|-----3---------------|-----1----------|
|----2s4--------------|-------2-(2)---------|-------0--------|
|---------------------|---------------------|------------0-2-|
|---------------------|---------------------|----------------|
|-0-------------------|---------------------|----------------|
|
| Q    E H          E   Q.    H         S S   Q.    H    S S
|-0------0------------|-2-------------------|-0-----0--------|
|-0------0----------3-|-3-----3---------3---|-3-----3--------|
|-0-----------------2-|-2-----2---------2p0-|-0-----0--------|
|-2-----------------0-|-0-----0-------------|------------0-2-|
|-2----2------------0-|-0-----0-------------|-3-----3--------|
|-0----0--------------|---------------------|----------------|


  F5           C               Em
                            Gtr I
  W                             Q  E E +E   E   E  E
                                |  | |  |   |   |  |
                                /  / /  /   /   /  /

  Gtr V                     Gtr V
  Q.   T T T T Q.    S  S    a  H       E.  S  +E  T  T T T
|-------------------------|------------------------------------|
|--------------------5--7-|--7s=8-------8---7--(7)-5h=7p5s4----|
|-------------------------|------------------------------------|
|-3----2-3-2-0------------|------------------------------------|
|--------------3----------|------------------------------------|
|-------------------------|------------------------------------|
|
| Gtr VI
| H            Q   E S  S    a  H       E.  S  +E  T  T T T
|-------------------------|------------------------------------|
|--------------------8-10-|-10s12------12--10-(10)-8h10p8s7----|
|-------------------------|------------------------------------|
|-------------------------|------------------------------------|
|-------------------------|------------------------------------|
|-------------------------|------------------------------------|
|
| Gtr IV
| Q.   T T T T Q.    S  S    W
|-------------------------|--0---------------------------------|
|-1-----------------------|--0---------------------------------|
|-2------------0----------|------------------------------------|
|-3----2h3p2p0------------|--2---------------------------------|
|--------------3-----2--0-|--2---------------------------------|
|-------------------------|--0---------------------------------|


  B                    G5
                       ~~
  Q  E E +Q..    S     H      A E E A E E
|--------------------|-----------------------|
|-4------------------|-----------------------|
|----4---------------|------------7----------|
|------4-(4)s====5---|-5------7s9---9s7-5----|
|--------------------|-----------------------|
|--------------------|-----------------------|
|
| Q  E H       S   S   Q.   Q   E E E
|--------------------|-3----3---3-3-3--------|
|-7--7---------------|-3----3---3-3-3--------|
|------8-------------|-0----0---0-0-0--------|
|--------------------|-0----0---0-0-0--------|
|--------------------|-----------------------|
|--------------2---3-|-3----3---3-3-3--------|
|
| Gtr IV
| W                    W
|--------------------|-3---------------------|
|-4------------------|-3---------------------|
|-4------------------|-0---------------------|
|-4------------------|-0---------------------|
|-2------------------|-----------------------|
|--------------------|-3---------------------|


  G5         D/F#      Em
             ~                                      ~
                                   |-3--|
  Q  S S E   Q  E  E    H.     +E  S  S S     Q   E H    E
|--------------------|---------------------|--------------------|
|---------------5--7-|--7b8r===(7)-5h=7p5s=|==4-----------------|
|--------------------|---------------------|------4-------------|
|-5--5h7-7---4-------|---------------------|--------4----5------|
|--------------------|---------------------|--------------------|
|--------------------|---------------------|--------------------|
|
|                                                     ~
|                                  |-3--|
| Q  E   S S Q  E  E    H.     +E  S  S S     Q     E H    E
|-3--3---3-3-0-------|---------------------|--------------------|
|-3--3---3-3-3--8-10-|-10b12r=(10)-8h10p8s=|==7-----------------|
|-0--0---0-0-2-------|---------------------|--------8------0----|
|-0--0---0-0-0-------|---------------------|----------9----0----|
|--------------------|---------------------|--------------------|
|-3--3---3-3-2-------|---------------------|--------------------|
|
| H          H          W                    +W
|-3----------0-------|--0------------------|-(0)----------------|
|-3----------3-------|--0------------------|-(0)----------------|
|-0----------2-------|---------------------|--------------------|
|-0----------0-------|--2------------------|-(2)----------------|
|--------------------|--2------------------|-(2)----------------|
|-3----------2-------|--0------------------|-(0)----------------|


  G5                  G5     D/F#      Em
  ~
                                                            |-3--|
  Q  Q  a E E S S E   Q  E E Q  E  e    Q.      Q   E   +E  S  S S
|-------------------|----------------|----------7---------------------|
|-------------------|-----------5--7-|--7b8=========7r==(7)-5h=7p5----|
|-----------7-------|----------------|--------------------------------|
|-5--5--7S9---9s7-5-|-5--5-7-4-------|--------------------------------|
|-------------------|----------------|--------------------------------|
|-------------------|----------------|--------------------------------|
|
|                                                           |-3--|
| Q  Q  Q.    E       Q  E E Q  E  E    Q.      Q   E   +E  S  S S
|-------------3-----|----------------|---------10---------------------|
|-3--3--3-----3-----|-3--3-3-3--8-10-|-10b12=======10r=(10)-8h10p8----|
|-0--0--0-----0-----|-0--0-0-2-------|--------------------------------|
|-0--0--0-----------|-0--0-0-0-------|--------------------------------|
|-------------------|----------------|--------------------------------|
|-3--3--3-----------|-3--3-3-2-------|--------------------------------|
|
| W                   H      H          W
|-------------------|--------0-------|--0-----------------------------|
|-3-----------------|-3------3-------|--0-----------------------------|
|-0-----------------|-0------2-------|--------------------------------|
|-0-----------------|-0------0-------|--2-----------------------------|
|-------------------|----------------|--2-----------------------------|
|-3-----------------|-3------2-------|--0-----------------------------|


  B               G5                   D
                  ~~               PM  ~      ~
  Q  E H    E     Q.   E A  E E E  E   Q  E E Q  E E
|---------------|--------------------|------------------|
|-4-------------|--------------------|------------------|
|----4----------|---------------7--9-|-5--5h7-4--4-5----|
|------4----5---|-5----0-7s=9-9------|------------------|
|---------------|--------------------|------------------|
|---------------|--------------------|------------------|
|
|                 ~~                          ~
| Q  E H    S S   H         E E E  E   Q  E E Q  E E
|---------------|--------------------|-----------0-0----|
|-7--7----------|---------------8-10-|-7--7h8-5--0-0----|
|----8-8----0-0-|-4--------/7-9------|------------------|
|------9----0-0-|-5--------/9--------|------------------|
|---------------|--------------------|------------------|
|---------------|--------------------|------------------|
|
| W               W                    W
|---------------|--------------------|-2----------------|
|-4-------------|-3------------------|-3----------------|
|-4-------------|-0------------------|-2----------------|
|-4-------------|-0------------------|-0----------------|
|-2-------------|--------------------|------------------|
|---------------|-3------------------|------------------|


 Outro
  Em
  Gtr I
  W                        +W
  |                         |
  /                         /

  Gtr II
                     ~~                        ~
               |-3-|                     |-3-|
  Q.   E +S  S S S S E.S    Q.   E +S  S S S S Q
|------------------------|------------------------|
|------------------------|------------------------|
|-4----9-(9)p7-----------|-(4)---9-(9)p7----------|
|--------------9s7p5-7p5-|---------------9s7p5-7--|
|------------------------|------------------------|
|-0----------------------|--0---------------------|
|
| Gtr III
| W                        +W
|-0----------------------|-(0)--------------------|
|-0----------------------|-(0)--------------------|
|------------------------|------------------------|
|------------------------|------------------------|
|------------------------|------------------------|
|------------------------|------------------------|


  +W                      W
   |                      |
   /                      /

                               \0.5/
                      ~
                |-3-|
   Q.   E +S  S S S S Q   Q.  +E     +H
|-----------------------|-0---(0)----(0)-*|
|-----------------------|-5---(5)----(5)-*|
|-------9-(9)p7---------|-0---(0)----(0)-*|
|---------------9s7p5-7-|-2---(2)----(2)-*|
|-----------------------|-2---(2)----(2)-*|
|--0--------------------|-0---(0)----(0)-*|
|
|  W                      W
|-----------------------|----------------*|
|-----------------------|----------------*|
|-----------------------|----------------*|
|-----------------------|----------------*|
|-----------------------|----------------*|
|-----------------------|----------------*|




--------------------------------------------------------------------------------


Duration Legend
---------------
W - whole; H - half; Q - quarter; E - 8th; S - 16th; T - 32nd; X - 64th; a - acciaccatura
+ - note tied to previous; . - note dotted; .. - note double dotted
Uncapitalized letters represent notes that are staccato (1/2 duration)
Irregular groupings are notated above the duration line
Duration letters will always appear directly above the note/fret number it represents the
duration for.  Duration letters with no fret number below them represent rests.  Multi-
bar rests are notated in the form Wxn, where n is the number of bars to rest for.  Low
melody durations appear below the staff

Tablature Legend
----------------
 h   - hammer-on
 p   - pull-off
 b   - bend
 pb  - pre-bend
 r   - bend release (if no number after the r, then release immediately)
 /\  - slide into or out of (from/to "nowhere")
 s   - legato slide
 S   - shift slide
 - natural harmonic
[n]  - artificial harmonic
n(n) - tapped harmonic
 ~   - vibrato
 tr  - trill
 T   - tap
 TP  - trem. picking
 PM  - palm muting
\n/  - tremolo bar dip; n = amount to dip
 \n  - tremolo bar down
 n/  - tremolo bar up
/n\  - tremolo bar inverted dip
 =   - hold bend; also acts as connecting device for hammers/pulls
  - volume swell (louder/softer)
 x   - on rhythm slash represents muted slash
 o   - on rhythm slash represents single note slash

Misc Legend
-----------
 |  - bar
||  - double bar
||o - repeat start
o|| - repeat end
*|  - double bar (ending)
 :  - bar (freetime)
 $  - Segno
 &  - Coda
Tempo markers -  = BPM(8/16=s8/s16), where s8 = swing 8ths, s16 = swing 16ths



--------------------------------------------------------------------------------
Comments