George Harrison - Wah-wah Chords & Tabs

 

Wah-wah Chords & Tabs

George Harrison Chords & Tabs

Version: 1 Type: Tab 0 ratings
1 star 2 stars 3 stars 4 stars 5 stars
comments

Wah-wah Tab

   
				
-------------------------------------------------------------------------------

		 George Harrison- Wah-Wah
-------------------------------------------------------------------------------

			Tabbed By: Whotheledbeatle
			Email: Halfpint587@AOL.com

Well, this is the first tab I've ever done so bear with me here...well, this should
be accurate, enjoy. 

[ Tab from: http://www.guitartabs.cc/tabs/g/george_harrison/wah_wah_tab.html ]
			Tuning: Standard
| /  slide up
| \  slide down
| h  hammer-on
| p  pull-off
| ~  vibrato
| +  harmonic
| x  Mute note

			Intro:
			e|----0-0------0-----------00------0--------|
			B|----0-0-0h2h3--0---------00-0h2h3---------|
			G|--1--------------2p1---1----------2p1-----|
			D|------------------------------------------|
			A|------------------------------------------|
			E|0--------------------0--------------------|


			Verse: E  G#7  F#7  E#minor7  B7  F#minor  B7  D7
Comments