Geordie - So What Chords & Tabs

 

So What Chords & Tabs

Geordie Chords & Tabs

Version: 1 Type: Tab 0 ratings
1 star 2 stars 3 stars 4 stars 5 stars
comments

So What Tab

Auther/Artist : Geordie
Title : So What
Transcribed by : Justin Harmon
Email : womenarenice@hotmail.com

This is a great song by the front man of AC/DC Brian Johnson's former band
Geordie.This is just the main riffs and for the solos you can just mess with them

Intro
E--------------------------------------------------------
B--------------------------------------------------------
G----------------------------------------------12--------
D----------------------------------------------12--------
A--7p5p0-----------------7p5p0------------------------
E------------0-0-0-0-0-0-----------0-0-0---------------
            pm...........         pm.......     

[ Tab from: http://www.guitartabs.cc/tabs/g/geordie/so_what_tab.html ]
Verse
E-----------------------------------------
B-----------------------------------------
G--5 / 7 / 9-------------------------------
D--5 / 7 / 9-------------------------------
A--3 / 5 / 7-------------------------------
E---------------0-0-0-0-0-0--------------
               pm............    

Interlude
E--------------------
B--------------------
G--------------------
D--9------------------
A--9-REPEAT-------
E--7------------------

Play over solo 
E---------------------------------------------------
B---------------------------------------------------
G---------------------------------------------------
D--2-2--4-4----------------------------------------
A--0-0--0-0----------------2-2---4-4----------------
E--------------------------0-0---0-0----------------
{--repeat 4 times--}then{--repeat 4 times--}
Comments