Genesis - Invisible Touch Chords & Tabs

 

Invisible Touch Chords & Tabs

Genesis Chords & Tabs

Version: 1 Type: Bass Tab 0 ratings
1 star 2 stars 3 stars 4 stars 5 stars
comments

Invisible Touch Bass Tab

SONG TITLE: Invisible Touch
ARTIST: Genesis
ALBUM: Invisible Touch
TABBED BY: Martin Kelly


INTRO/CHORUS

G-----------------------------------------------------------------------------------------
D-----------------------------------------------------------------------------------------
A-----------------------------------------------------------------------------------------
E--1-1-1----1-1------1-1-1-----1/10--8----------------------------------------------------

VERSE

G-----------------------------------------------------------------------------------------
D-----------------------------------------------------------------------------------------
A-----5--3------------------------------5--3----------------------------------------------
E--1--------1-----1---1-----5-5--3-5-1--------1-----1---1-----3--3-----3--3---1-1-1--5-5-3
[ Tab from: http://www.guitartabs.cc/tabs/g/genesis/invisible_touch_btab.html ]
G-----------------------------------------------------------------------------------------
D-----------------------------------------------------------------------------------------
A-----------------------------------------------------------------------------------------
E--5--1-1-1--5-5-3-5-1-1--1-1-1-3---------------------------------------------------------

SOLO

G-----------------------------------------------------------------------------------------
D-----------------------------------------------------------------------------------------
A-----------------------------------------------------------------------------------------
E--11-11--11--11--11-----------------------11-11-11-11-11-11-9-11-9-11--------------------
		    Repeat til 1:57, then

CHORUS 3/ENDING

G-----------------------------------------------------------------------------------------
D-----------------------------------------------------------------------------------------
A-----------------------------------------------------------------------------------------
E--3-3-3----3-3----3-3-3-----3/12--10-----------------------------------------------------
					Repeat to Fade


	For a list of Tabs, contact electricgod8512@aol.com


Comments