Genesis - Dusk Chords & Tabs

 

Dusk Chords & Tabs

Genesis Chords & Tabs

Version: 1 Type: Tab 0 ratings
1 star 2 stars 3 stars 4 stars 5 stars
comments

Dusk Tab

   
From : Russell Foster  05/04/2003

Subject : Genesis Tab  : Track : Dusk :  From Genesis Archive Disc 4 

Not 100 % accurate..Just basic chord patterns 



Intro.......2 Times.......      

[--0----------------0----]      
[--0--------------0------]      
[--8------------8--------]      
[--9----------9----------]      
[--9--------9------------]      
[--0------0--------------]      



Verse**....

[--0-------------------------0----]
[--0----------------------0-------]
[--8--------------8-----8---------]
[--9--------9--------9------------]
[--9------9----9------------------]
[--7----7-------------------------]


Chorus'**....

[--0--0--7--0--7--0----0--0--9--0--9--0-]
[--0--0--0--0--0--0----0--0--0--0--0--0-]
[--6--6--6--6--6--6----8--8--8--8--8--8-]
[--7--7--7--7--7--7----9--9--9--9--9--9-]
[--7--7--7--7--7--7----9--9--9--9--9--9-]
[---------------------------------------]


[--0--0--7--0--7--0----0--0--9--0--9--0-]
[--0--0--0--0--0--0----0--0--0--0--0--0-]
[--6--6--6--6--6--6----8--8--8--8--8--8-]
[--7--7--7--7--7--7----9--9--9--9--9--9-]
[--7--7--7--7--7--7----9--9--9--9--9--9-]
[---------------------------------------]

EM                 F*
[--7--7--7--7--7---9--9--9--9--9--]
[--8--8--8--8--8---11-11-11-11-11-]
[--9--9--9--9--9---11-11-11-11-11-]
[--9--9--9--9--9---11-11-11-11-11-]
[--7--7--7--7--7---9--9--9--9--9--]
[---------------------------------]

EM                 F*
[--7--7--7--7--7---9--9--9--9--9--]
[--8--8--8--8--8---11-11-11-11-11-]
[--9--9--9--9--9---11-11-11-11-11-]
[--9--9--9--9--9---11-11-11-11-11-]
[--7--7--7--7--7---9--9--9--9--9--]
[---------------------------------]

D                   E
[ Tab from: http://www.guitartabs.cc/tabs/g/genesis/dusk_tab.html ]
[--5--5--5--5--5-------------0-------------------0----------0-]
[--7--7--7--7--7-----------0----0--------------0----------0---]
[--7--7--7--7--7---------1---------1---------8----------8-----]
[--7--7--7--7--7-------2-------------2-----9----------9-------]
[--5--5--5--5--5-----2-------------------9----------9---------]
[-------------------------------------------------------------]

Verse................

Chorus...............



Flute Solo.........

[--7--7--7-10-9-7-7---7--7--7--7--7-7-7-]
[--7--7--7-7--7-7-10--9--9--9--10-9-7-9-]
[--7--7--7-7--7-7-7---7--7--7--7--7-7-7-]
[--7--7--7-7----------9--9--9--9--9-9-9-]
[--9--9--9------------7--7--7--7--7-7-7-]
[--7--7--7------------7-----------------]

[--7--7--7-10-9-7-7---7--7--7--7--7-7-7-]
[--7--7--7-7--7-7-10--9--9--9--10-9-7-9-]
[--7--7--7-7--7-7-7---7--7--7--7--7-7-7-]
[--7--7--7-7----------9--9--9--9--9-9-9-]
[--9--9--9------------7--7--7--7--7-7-7-]
[--7--7--7------------7-----------------]

[--0--0--0--7--0--7--0---0--0--0--3-2-0-0-]
[--5--5--5--5--5--5--5---2--2--2--0-0-0-2-]
[--6--6--6--6--6--6--6---3--3--3--0-0-0-0-]
[--7--7--7--7--7--7--7---4--4--4--4-4-4-4-]
[--0--------------------------------------]
[-----------------------------------------]

[----7--7-7-9-7-9-7---3--3-3-5-3-5-3----7--7-7-7-9-7-9-7-]
[----7--7-7-7-7-7-7---3--3-3-3-3-3-3----7--7-7-7-7-7-7-7-]
[----7--7-7-7-7-7-7---3--3-3-3-3-3-3----7--7-7-7-7-7-7-7-]
[----7--7-7-7-7-7-7---3--3-3-3-3-3-3----7--7-7-7-7-7-7-7-]
[----9--9-9-----------5-----------------9--9-------------]
[--7----------------3-----------------7------------------]


[------5----5-----5---------5------5-----5---------3------3------3---------3------3-----3------]
[-------3-----3-----3---------3------3-----3----------3-----3-------3---------3-----3------3---]
[---------3-----3-----3---------3------3-----3----------3------3------3---------3-----3------3-]
[----------------------------------------------------------------------------------------------]
[--5---------------------5----------------------3------------------------3---------------------]
[----------------------------------------------------------------------------------------------]


....EM.......B.....


[-----------------0---]
[--------------0------]
[----------8----------] ETC.......
[------9-----9--------]
[----9---9------------]
[--7------------------]
Comments