General Surgery - Ominous Lamentation Chords & Tabs

 

Ominous Lamentation Chords & Tabs

General Surgery Chords & Tabs

Version: 1 Type: Tab 0 ratings
1 star 2 stars 3 stars 4 stars 5 stars
comments

Ominous Lamentation Tab

Author/Artist: GENERAL SURGERY
Title: OMINOUS LAMENTATION
Album: NECROLOGY
Transcribed by: KERNOUS
Email: KERNOUS@RELAPSECULT.COM

TUNE DOWN 2 & 1/2 STEPS DOWN.LISTEN TO ALBUM FOR TIMING.
I DO NOT HAVE A LOCKING SYSTEM SO I CAN'T TAB ALL THE SOLOS AND DIVES,SORRY.
   riff1
-|------------------------------------------------------------|
-|------------------------------------------------------------|
-|---------------------------------------------------4--------|
-|----2----5-6-5-3-5-6-2------------2----5-6-5-3-5-6-4--------|
-|55552----5-6-5-3-5-6-2--------55552----5-6-5-3-5-6-2--------|
-|33330----3-4-3-1-3-4-0--------33330----3-4-3-1-3-4----------|
  PM..                          ....
   riff2
-|-------------------------------------------|
-|-------------------555555444422------------|
-|-------------------------------555555444422|
-|----2----5-6-5-3-5-333333222200------------|
-|55552----5-6-5-3-5-------------333333222200|
-|33330----3-4-3-1-3-------------------------|

   riff3
-|------------------------------------------------|
-|------------------------------------------------|
-|------------------------------------------------|
-|-2-------H---5----------2-------H---5--------h--|
-|-2------2-3--5-----5-6~-2------2-3--5------5-6~-|
-|-0------0-1--3---4------0------0-1--3----4------|
[ Tab from: http://www.guitartabs.cc/tabs/g/general_surgery/ominous_lamentation_tab.html ]
   riff4
-|---------------------------------------------------------|
-|---------------------------------------------------------|
-|---------------------------------------------------------|
-|-2------2----------------5--6----2------2-------3--5--6--|
-|-2--------3-2~---3----33-5--6-22-2--------3-2t--3--5--6--|
-|-0---------------1----11-3--4-00-0--------------1--3--4--|

   riff5
-|---------------------------------------|
-|---------------------------------------|
-|------------------------------5--------|
-|-2----2----2----5-3-6----6----5----5-3-|
-|-2-22-2-22-2-22-5-3-6-66-6-66-3-22-5-3-|
-|-0-00-0-00-0-00-3-1-4-44-4-44---00-3-1-|
     ..   ..   ..       ..   ..   ..
   riff6
-|--------------------------------------|
-|--------------------------------------|
-|-----------------------------------h--|
-|-2-2-222-32-3-2-0------3-----------3--|
-|-2---------------3-2-0-3--3------3----|
-|-0---------------------1----1111------|
                              ....
    riff7
-|--------------------------------------|
-|--------------------------------------|
-|----------------------5-5-------------|
-|---2-222-32-3-2-0-----3-3-3---2-------|
-|-----------------3-2-0--3-3---2-------|
-|-0------------------------1---0-------|

riff1 x 2
riff2 x 4
riff3 x 2
riff4 x 2
riff5 x 6
riff6 x 4
riff5 x 4
riff6 x 1
riff7 x 1
end
Comments