Gene Simmons - Asshole Chords & Tabs

 

Asshole Chords & Tabs

Gene Simmons Chords & Tabs

Version: 1 Type: Tab 0 ratings
1 star 2 stars 3 stars 4 stars 5 stars
comments

Asshole Tab

Auther/Artist:Gene Simmons
Title:Asshole
Transcribed by:Justin Harmon(on 8/2/04)
Email:womenarenice@hotmail.com


This is the title track off his new solo album
This is not the best album I've ever heard but this is
one of the better songs. I do not show timing u have to
listen to the song

Intro:Guitar 1
E----------------------------------------------------------------|
B----------------------------------------------------------------|
G--2-2--4-4--7-7-----------------2-2--4-4--7-7-------------------|
D--2-2--4-4--7-7-----------------2-2--4-4--7-7-------------------|
A--0-0--2-2--5-5----------2------0-0--2-2--5-5----------2--------|
E------------------2h4-5----4~-------------------2h4-5-----4~----|

Intro:Guitar 2(play twice)
E-------------------------------------------------------------------|
B-------------------------------------------------------------------|
G-13/14-14-14-14/13-13--13/14-14-14-14/13-13--13/14-14-14-14-13-13--|
D--x--x--x--x--x--x--x---x--x--x--x--x--x--x--x--x--x--x--x--x---x--|
A-11/12-12-12-12/11-11--11/12-12-12-12/11-11--11/12-12-12-12-11-11--|
E-------------------------------------------------------------------|

---------------------------|
---------------------------|
--13/14-14-14-14/13--------|
---x--x--x--x--x--x--------|
--11/12-12-12-12/11--------|
---------------------------|
[ Tab from: http://www.guitartabs.cc/tabs/g/gene_simmons/asshole_tab.html ]
Verses:
E-----------------------------------------------------------------|
B-----------------------------------------------------------------|
G--2-2--4-4--9-9--9-9--2-2--4-4--9-9--9-9--2-2--4-4--9-9--9-9-----|
D--2-2--4-4--9-9--9-9--2-2--4-4--9-9--9-9--2-2--4-4--9-9--9-9-----|
A--0-0--2-2--7-7--7-7--0-0--2-2--7-7--7-7--0-0--2-2--7-7--7-7-----|
E-----------------------------------------------------------------|

------------------------------------|
------------------------------------|
--2-2--4-4--------------------------|
--2-2--4-4---2-2-2-2-2--------------|
--0-0--2-2---2-2-2-2-2--------------|
-------------0-0-0-0-0--------------|

Chorus:
E------------------------------------------------------------------|
B------------------------------------------------------------------|
G--2-2--7-7-------7-7--2-2--7-7-------7-7--2-2--7-7-------7-7------|
D--2-2--7-7--2-2--7-7--2-2--7-7--2-2--7-7--2-2--7-7--2-2--7-7------|
A--0-0--5-5--2-2--5-5--0-0--5-5--2-2--5-5--0-0--5-5--2-2--5-5------|
E------------0-0-----------------0-0-----------------0-0-----------|

-------------------------------------|
-------------------------------------|
--2-2--7-7---------------------------|
--2-2--7-7--2-2-2-2-2-2--9-7---------|
--0-0--5-5--2-2-2-2-2-2--x-x---------|
------------0-0-0-0-0-0--7-5---------|

Verse 2


Chorus


Play Intro


Bridge:
E---------------------------------------------------------|
B---------------------------------------------------------|
G-----7--2---------7--2---------7--2-------------7--------|
D--4--7--2--2---4--7--2--2---4--7--2--2----5-----7--------|
A--4--5--0--2---4--5--0--2---4--5--0--2----5-----5--------|
E--2--------0---2--------0---2--------0----3--------------|


Solo


Repeat Chorus
Comments