Gemma Hayes - Back Of My Hand Chords & Tabs

 

Back Of My Hand Chords & Tabs

Gemma Hayes Chords & Tabs

Version: 1 Type: Tab 0 ratings
1 star 2 stars 3 stars 4 stars 5 stars
comments

Back Of My Hand Tab

   
Title: Back Of My Hand
Artist: Gemma Hayes
Album: Night On My Side (2002)

tabbed by scef (email: funnell_teen_spirit@yahoo.com)

here's another winner off one of the best albums of
2002...took me a while to get it just right so if it's
out anywhere let me know

intro
e-0--0--0--0--0--0--0--0--|-0--0--0--0--0--0--0--0--|
B-12-12-12-12-12-12-12-12-|-12-12-12-12-12-12-12-12-|
G-14-14-14-14-14-14-14-14-|-14-14-14-14-14-13-13-13-|
D-0--0--0--0--0--0--0--0--|-0--0--0--0--0--0--0--0--|
A-------------------------|-------------------------|
E-------------------------|-------------------------|

then play this progression 5 times for the verse:
e-0--0--0--0--0--0--0--0--|-0--0--0--0--0--0--0--0--|
B-10-10-10-10-10-10-10-10-|-10-10-10-10-10-10-10-10-|
G-9--9--9--9--9--9--9--9--|-9--9--9--9--9--9--9--9--|
D-0--0--0--0--0--0--0--0--|-0--0--0--0--0--0--0--0--|
A-------------------------|-------------------------|
E-------------------------|-------------------------|

                                   ("will I be...")
e-9--9--9--9--9--9-----7--|-7--7--7--7--7--7--7-----|
B-9--9--9--9--9--9-----7--|-7--7--7--7--7--7--7-----|
G-9--9--9--9--9--9-----7--|-7--7--7--7--7--7--7-----|
D-11-11-11-11-11-11----9--|-9--9--9--9--9--9--9-----|
A-11-11-11-11-11-11----9--|-9--9--9--9--9--9--9-----|
E-9--9--9--9--9--9-----7--|-7--7--7--7--7--7--7-----|


chorus(?) - "c'mon and give me your heart..."
e-0--0--0--0--0--0--0--0--|-0--0--0--0--0--0--0--0--|
B-10-10-10-10-10-10-10-10-|-10-10-10-10-10-10-10-10-|
G-9--9--9--9--9--9--9--9--|-9--9--9--9--9--9--9--9--|
D-0--0--0--0--0--0--0--0--|-0--0--0--0--0--0--0--0--|
A-------------------------|-------------------------|
E-------------------------|-------------------------|

e-9--9--9--9--9--9--9--9--|-9--9--9--9--9--9--9--9--|
B-9--9--9--9--9--9--9--9--|-9--9--9--9--9--9--9--9--|
G-9--9--9--9--9--9--9--9--|-9--9--9--9--9--9--9--9--|
D-11-11-11-11-11-11-11-11-|-11-11-11-11-11-11-11-11-|
A-11-11-11-11-11-11-11-11-|-11-11-11-11-11-11-11-11-|
E-9--9--9--9--9--9--9--9--|-9--9--9--9--9--9--9--9--|

e-7--7--7--7--7--7--7--7--|-7--7--7--7--7--7--7--7--|
B-7--7--7--7--7--7--7--7--|-7--7--7--7--7--7--7--7--|
G-7--7--7--7--7--7--7--7--|-7--7--7--7--7--7--7--7--|
D-9--9--9--9--9--9--9--9--|-9--9--9--9--9--9--9--9--|
A-9--9--9--9--9--9--9--9--|-9--9--9--9--9--9--9--9--|
E-7--7--7--7--7--7--7--7--|-7--7--7--7--7--7--7--7--|

e-7--7--7--7--7--7--7--7--|-7--7--7--7--7--7--7--7--|
B-7--7--7--7--7--7--7--7--|-7--7--7--7--7--7--7--7--|
G-7--7--7--7--7--7--7--7--|-7--7--7--7--7--7--7--7--|
D-9--9--9--9--9--9--9--9--|-9--9--9--9--9--9--9--9--|
A-9--9--9--9--9--9--9--9--|-9--9--9--9--9--9--9--9--|
E-7--7--7--7--7--7--7--7--|-7--7--7--7--7--7--7--7--|


then there's this distorted solo, played with an ebow
methinks...played (over verse progression) twice
e-------------------------|-------------------------|
B/12----------------------|-12-14-15-14----12----10-|
G-------------------------|-------------------------|
D-------------------------|-------------------------|
A-------------------------|-------------------------|
E-------------------------|-------------------------|

e-------------------------|-------------------------|
B-------------------------|-------------------------|
G-11----------------------|-9--11-12-11----9-----7--|
D-------------------------|-------------------------|
A-------------------------|-------------------------|
E-------------------------|-------------------------|

[ Tab from: http://www.guitartabs.cc/tabs/g/gemma_hayes/back_of_my_hand_tab.html ]
then, when the vocals come back in, the chord
progression stays the same (ie the verse progression)
but a 2nd guitar plays this 4 times over the top:
e-------------------------|-------------------------|
B-------------------------|-------------------------|
G-------------------------|-------------------------|
D-------------------------|-------------------------|
A-2-----2-----2--2----2/4-|----4-----2-----4--2--0--|
E-------------------------|-------------------------|

e-------------------------|-------------------------|
B-------------------------|-------------------------|
G-------------------------|-------------------------|
D-------------------------|-------------------------|
A-------------------------|-------------------------|
E-4-----4-----4--4-----2--|----2-----0-----0-----0--|


then there are 2 more choruses - the 2nd guitar plays
this over the chorus chord progression both times:
e-------------------------|-------------------------|
B-------------------------|-------------------------|
G-------------------------|-------------------------|
D-------------------------|-------------------------|
A-2-----2-----2--2----2/4-|----4-----2-----4--2--0--|
E-------------------------|-------------------------|

e-------------------------|-------------------------|
B-------------------------|-------------------------|
G-------------------------|-------------------------|
D-------------------------|-------------------------|
A-0-----0-----0--0--------|-------------------------|
E----------------------4--|----4-----2-----2-----2--|

e-------------------------|-------------------------|
B-------------------------|-------------------------|
G-------------------------|-------------------------|
D-------------------------|-------------------------|
A-2-----2-----2--2----2/4-|----4-----2-----4--2--0--|
E-------------------------|-------------------------|

e-------------------------|-------------------------|
B-------------------------|-------------------------|
G-------------------------|-------------------------|
D-------------------------|-------------------------|
A-------------------------|-------------------------|
E-2-----2-----2--2----2/4-|----4-----2-----0--2-----|


then it's the solo again, then another verse with bits
of the solo played over the top (listen to it and
you'll make it out),then chorus progression is played
to the fade out, with a bit of extra 'solo-ing' over
the top after one chorus has been played:
e-------------------------|-------------------------|
B-14----------------------|-------------12---/17----|
G-------------------------|-------------------------|
D-------------------------|-------------------------|
A-------------------------|-------------------------|
E-------------------------|-------------------------|

e-------------------------|-------------------------|
B-15----------------------|-------------12---/17----|
G-------------------------|-------------------------|
D-------------------------|-------------------------|
A-------------------------|-------------------------|
E-------------------------|-------------------------|

e-------------------------|-------------------------|
B-10----------------------|-------------------------|
G-------------------------|-------------------------|
D-------------------------|-------------------------|
A-------------------------|-------------------------|
E-------------------------|-------------------------|

e-------------------------|-------------------------|
B-------------------------|-------------------------|
G-11----------------------|-------------------------|
D-------------------------|-------------------------|
A-------------------------|-------------------------|
E-------------------------|-------------------------|

repeat above to fade, and then you've finished! now
off to work on more gemma hayes tab...
Comments