Gbh - Time Bomb Chords & Tabs

 

Time Bomb Chords & Tabs

Gbh Chords & Tabs

Version: 1 Type: Tab 0 ratings
1 star 2 stars 3 stars 4 stars 5 stars
comments

Time Bomb Tab

   
Band:G.B.H
Song:Time Bomb
Tabbed By:Oppressor

Intro:          1st part
e------------   ----------------|
b------------   ----------------|
g------------   ----------------|
d------------   -----11---------|
a---1111-9---   ---9--9-99999---|
e----9-9-7---   ---7----77777---|

2nd part                3rd part
e--------------------   --------------------------|
b--------------------   --------------------------|
g--------------------   --------------------------|
d--------------------   --------------9-9-9-9-9---|
a---1212-12-9/11-9---   ---1212121212-7-7-7-7-7---|
e---1010-10-7/-9-7---   ---1010101010-------------|
[ Tab from: http://www.guitartabs.cc/tabs/g/gbh/time_bomb_tab.html ]
Solo                    Song Structure:
e--------------------      Intro: x4   Tab is 100-| correct.
b-------------------------------------------------|   1st part: x8   Any questions email me at
g---46664666466676--------------------------------|   2nd part: x5   mortified_dormition@yahoo.com.
d--------------------   3rd part------------------| x1
a--------------------   1st part------------------| x8
e--------------------   2nd part------------------| x5
                        3rd part: x1
                           Solo: x8
                        1st part: x4
                        2nd part: x5
                        3rd part: x1
                        1st part: x8
                        2nd part: x5
                        3rd part: x1
                        1st part: x4
Comments