Gbh - Big Women Chords & Tabs

 

Big Women Chords & Tabs

Gbh Chords & Tabs

Version: 1 Type: Tab 0 ratings
1 star 2 stars 3 stars 4 stars 5 stars
comments

Big Women Tab

   
Bands official page www.punkjunkies.com
Band members Colin (vocals) Wilf(drums) Ross(bass) Jock (guitar)
Formed in late 1979
From Birmingham
Band:G.B.H         
Song:Big Women
Tabbed by oppressor

1st part             2nd part  
e---------------     ----------------------------  
b---------------     ----------------------------
g---------------     ----------------------------
d-----999-------     --999-------------999-------
a---9-777-999---     9-777-999-777-999-777-999---
e---7-----777---     7-----777-555-777-----777---

3rd part
e-----------------------------------
b-----------------------------------
g-----------------------------9-7---
d-----999-------------999-----7-5---
a---9-777-999-777-999-777-999-------
e---7-----777-555-777-----777-------
[ Tab from: http://www.guitartabs.cc/tabs/g/gbh/big_women_tab.html ]
Ending Solo:
e-------------------------------------------------------------------------
b-------------------------------------------------------------------------
g-------7h97h97h97h9-7-9-9-9-7h9h7---9-9-9---------7-9-7-9-10-9-7-9-9-9---
d---7-9----------------^-^-^-------9-^-^-^-7-9-7-9----------------^-^-^---
a-------------------------------------------------------------------------
e-------------------------------------------------------------------------

I did not put the song structure since its so easy to figure out the 3rd part
is hardly played so your going to have to listen for it more
carefully. The solo in the end is hardly hearable but I managed to get most of it
the rest of the solo is just more bends and fast picking on the 9th fret in g string.
Very easy song to play any questions or comments email me at
mortified_dormition@yahoo.com.And please rate 100%.
Comments