Gbdattic - Zombie Bear Chords & Tabs

 

Zombie Bear Chords & Tabs

Gbdattic Chords & Tabs

Version: 1 Type: Tab 0 ratings
1 star 2 stars 3 stars 4 stars 5 stars
comments

Zombie Bear Tab

Gbdattic- Zombie Bear


riff 1 

E-----------------------------------------------------
B-----------------------------------------------------
G-----------------------------7--7-5-7---5--5-3-5-----
D--7--7-7---6--6-6---5--5-5---7--7-5-7---5--5-3-5--7--
A--5--5-5---4--4-4---5--5-5---5--5-5-5---3--3-3-3--7--
E--7--7-7---5--5-5---3--3-3------------------------5--
[ Tab from: http://www.guitartabs.cc/tabs/g/gbdattic/zombie_bear_tab.html ]
riff 2 
E----------------------------------------
B----------------------------------------
G----------------------------------------
D-7--7--x-x-x--3--3--x-x-x--7------------  X 2
A-7--7--x-x-x--3--3--x-x-x--7------------
E-5--5--x-x-x--5--5--x-x-x--5------------

play riff 1 again

riff 3
E-----------------------------------
B-----------------------------------
G-----------------------------------
D-----------------------------------  X 2
A-----3------3------3-^-^-^---------
E-3/5----3/5----3/5-----------------


E-------------------------------------------
B-------------------------------------------
G-------------------------------------------
D--7--7-7---6--6-6---5--5-5-----------------
A--5--5-5---4--4-4---5--5-5-----------------
E--7--7-7---5--5-5---3--3-3-----5p3---6\0---


enjoy
Comments