Gavin Degraw - Nice To Meet You Anyway Chords & Tabs

 

Nice To Meet You Anyway Chords & Tabs

Gavin Degraw Chords & Tabs

Version: 1 Type: Tab 0 ratings
1 star 2 stars 3 stars 4 stars 5 stars
comments

Nice To Meet You Anyway Tab

Gavin DeGraw - (Nice To Meet You) Anyway
Album: Chariot

Gavin DeGraw is a great new singer/songwriter, check him out if you haven't already.
[ Tab from: http://www.guitartabs.cc/tabs/g/gavin_degraw/nice_to_meet_you_anyway_tab.html ]
e----6---6---5---5--6----6----3--1--3/5----|
B------6---6---6-------6---6---------------|
G------------------------------------------|
D------------------------------------------|
A------------------------------------------|
E------------------------------------------|

e----6---6---5---5--6----6----3p1--3------|
B------6---6---6-------6---6--------------|
G-----------------------------------------|
D-----------------------------------------|
A-----------------------------------------|
E-----------------------------------------|

p=pull-off
/=slide

That's basically it, there's probably some hammer-ons and pull-offs in there, but those 
the basic notes.

-djtdub105
Comments