Gavin Degraw - I Don't Want To Be Chords & Tabs

 

I Don't Want To Be Chords & Tabs

Gavin Degraw Chords & Tabs

Version: 3 Type: Tab 0 ratings
1 star 2 stars 3 stars 4 stars 5 stars
comments

I Don't Want To Be Tab

artist: gavin degraw
SONG: I DONT WANT TO BE
cd: chariot
tabed by,es skater punk
tunning: standard (eadgbe)

intro

e\----------------------------------------------------|
b\----------------------------------------------------|
g\----------------------------------------------------|
d\-----------------------------------  repeat-12or1---|3x
a\----------------------------------------------------|
e\--6h8-6h8-6h8-6h8-66h8------------------------------|


chorous

e\-----x--x--x--x--x---------------------|
b\-----x--x--8--x--10--------------------|
g\-----5--7--8--9--10--------------------|  struming paters not shown
d\-----6--8--8--10-10--------------------|
a\-----6--8--6--10--8--------------------|
e\-----4--6--x--8---x--------------------|


e\----------------------------------------------------|
b\----------------------------------------------------|
g\----------------------------------------------------|
d\-----------------------------------  repeat-12or1---|3x
a\----------------------------------------------------|
e\--6h8-6h8-6h8-6h8-66h8------------------------------|


chorous
[ Tab from: http://www.guitartabs.cc/tabs/g/gavin_degraw/i_dont_want_to_be_tab_ver_3.html ]
e\-----x--x--x--x--x---------------------|
b\-----x--x--8--x--10--------------------|
g\-----5--7--8--9--10--------------------|
d\-----6--8--8--10-10--------------------|
a\-----6--8--6--10--8--------------------|
e\-----4--6--x--8---x--------------------|


bridge
e\-----x-x-x-x-x----------|
b\-----x-x-x-x-x----------|
g\-----5-5-5-x-5 repeat-4-|x then
d\-----6-6-6-x-6----------|
a\-----6-6-6-x-6----------|
e\-----4-4-4-x-4----------|


e\----------|
b\----------|
g\-3--1--3--| 4x
d\-3--1--3--|
a\-3--1--3--|


e\-----x--x--x--x--x---------------------|
b\-----x--x--8--x--10--------------------|
g\-----5--7--8--9--10--------------------|  strum each one once but kinda
d\-----6--8--8--10-10--------------------|  lightly
a\-----6--8--6--10--8--------------------|
e\-----4--6--x--8---x--------------------|

chorous

e\-----x--x--x--x--x---------------------|
b\-----x--x--8--x--10--------------------|
g\-----5--7--8--9--10--------------------|
d\-----6--8--8--10-10--------------------|
a\-----6--8--6--10--8--------------------|
e\-----4--6--x--8---x--------------------|

i dont think its 100% right but pretty close to it

its also my first tab if its not correct sorry
Comments